Violinist

(/) Slide Up  (\) Slide Down  (h) Hammer On  (p) Pull Off  (b) Bend (r) Release (v) Vibrato


E|-----------------------13--------------------13-----13------------------------------------------------
B|-----------------11/---13--15\13--11--13b13----b13------13h15--11--13--11-----------------------11/---
G|-------------10------------------------------------------------------------11/14---------10b12--------
D|---------10--10-------------------------------------------------------------------10/12---------------
A|--10/13-----------------------------------------------------------------------------------------------
E|------------------------------------------------------------------------------------------------------



E|-----------------15\13---------------------
B|--15--13--13\11---------15\13--11----------
G|-----------------------------------12b12v--
D|-------------------------------------------
A|-------------------------------------------
E|-------------------------------------------
http://www.guitartabcreator.com
Guitar Tab Creator is intended to store guitar tab created through the tool. It currently does not support in-line text editing. Any text you place in here will be lost. If you need to comment on your tab, please use the "Tab Notes" section located below.