Arpeggio Assrape

(/) Slide Up  (\) Slide Down  (h) Hammer On  (p) Pull Off  (b) Bend (r) Release (v) Vibrato


E|--19--15------------------15--19--
B|----------17----------17----------
G|--------------16--16--------------
D|----------------------------------
A|----------------------------------
E|----------------------------------



E|--17--14------------------14--17--
B|----------15----------15----------
G|--------------14--14--------------
D|----------------------------------
A|----------------------------------
E|----------------------------------



E|--15--12------------------12--15--
B|----------13----------13----------
G|--------------12--12--------------
D|----------------------------------
A|----------------------------------
E|----------------------------------



E|--17--14------------------14--17--
B|----------15----------15----------
G|--------------14--14--------------
D|----------------------------------
A|----------------------------------
E|---------------------------------- x6 (last 3 fast)
http://www.guitartabcreator.com
Guitar Tab Creator is intended to store guitar tab created through the tool. It currently does not support in-line text editing. Any text you place in here will be lost. If you need to comment on your tab, please use the "Tab Notes" section located below.