Wishful Thinking - Watch With Blind Eyes

(/) Slide Up  (\) Slide Down  (h) Hammer On  (p) Pull Off  (b) Bend (r) Release (v) Vibrato

Wishful Thinking - Watch With Blind Eyes

Intro x4

G|-------------------------------------------------------------------------------------
D|-3-3-3h4-----------------------------------3-3-3h4---------2-2-2-2-2-2-2-2-2-2-2-2-2-
A|---------3-3-3h4-1-1-1-1-1-1-1-1-1-1-1-1-1---------3-3-3h4---------------------------
E|-------------------------------------------------------------------------------------

Verse x4

G|-------------------------------------------------------------------------------------
D|-3-3-3h4-----------------------------------3-3-3h4---------2-2-2-2-2-2-2-2-2-2-2-2-2-
A|---------3-3-3h4-1-1-1-1-1-1-1-1-1-1-1-1-1---------3-3-3h4---------------------------
E|-------------------------------------------------------------------------------------

Pre-Chorus

G|-----------------------------------------------------------------
D|-2-2-2-2-------------------------2-2-2-2-------------------------
A|---------3-3-3-3-1-1-1-1-3-3-3-3---------3-3-3-3-1-1-1-1-3-3-3-3-
E|-----------------------------------------------------------------


Chorus x3 (First Three Lines of Chorus)

G|--------------------------------------------------------------------------------------------------
D|--------------------------------------------------------------------------------------------------
A|-5-5-5-5-5-5-5-5-5-5-5-5-5-5-5h6-3-3-3-3-3-3-3-3-3-3-3-3-3-3-3h4-1-1-1-1-1-1-1-1-1-1-1-1-1-1-1-1-
E|--------------------------------------------------------------------------------------------------


Chorus Ending

G|--------------------------------------------------------------------------------------------------
D|--------------------------------------------------------------------------------------------------
A|--5--5--5--5--5--5--5--5--5--5--5--5--5--5--5h6--3--3--3--3--3--3--3--3--3--3--3--3--3--3--3h4----
E|------------------------------------------------------------------------------------------------3-
http://www.guitartabcreator.com
Guitar Tab Creator is intended to store guitar tab created through the tool. It currently does not support in-line text editing. Any text you place in here will be lost. If you need to comment on your tab, please use the "Tab Notes" section located below.