Luke's Intro on Lead for new song

(/) Slide Up  (\) Slide Down  (h) Hammer On  (p) Pull Off  (b) Bend (r) Release (v) Vibrato


E|----------------------------------------------------------------------------
B|----------------------------------------------------------------------------
G|----------------------------------------------------------------------------
D|----------------------------------------------------9-----9---9-----9-8-9---
A|-------------9-------9----9-------9----9------------------------------------
E|-11-11-11-11---11-11---11---11-11---11---11-7-7-7-7---7-7---7---7-7---------



E|--------------------------------------------------------------------
B|--------------------------------------------------------------------
G|--------------------------------------------------------------------
D|---------11-----11---11-----11-9-8v----------------------------------
A|-9-9-9-9----9-9----9----9-9--------11-11-11-11-9-11-11-11-11-9-11-9-
E|--------------------------------------------------------------------
http://www.guitartabcreator.com
Guitar Tab Creator is intended to store guitar tab created through the tool. It currently does not support in-line text editing. Any text you place in here will be lost. If you need to comment on your tab, please use the "Tab Notes" section located below.