Tab 1

(/) Slide Up  (\) Slide Down  (h) Hammer On  (p) Pull Off  (b) Bend (r) Release (v) Vibrato

E|---------------------------------------------------------
B|---------------------------------------------------------
G|---------------------------------------------------------
D|-------------------------7-4-------------------------7-4-
A|-------------7-0-0-5-0-5-----------------7-0-0-5-0-5-----
E|-0-0-0-0-0-0-----------------5-5-5-5-5-5----------------- L Opening



E|---------------------------------------------------------
B|---------------------------------------------------------
G|---------------------------------------------------------
D|---------------------------------------------------------
A|-0-0-0-0-0-0-0-0-0-0-0-0-0-0-5-5-5-5-5-5-5-5-5-5-5-5-9-7-
E|-0-0-0-0-0-0-0-0-0-0-0-0-0-0-5-5-5-5-5-5-5-5-5-5-5-5-9-7- R Opening Harmonize after




E|----------------------14--14--14--------------15--15--15--15h17--15------
B|--10--10--10--12--12--------------10--10--10-------------------------15--
G|-------------------------------------------------------------------------
D|-------------------------------------------------------------------------
A|-------------------------------------------------------------------------
E|------------------------------------------------------------------------- L Verse



E|-----------------------
B|-----------------------
G|-----------------7--2--
D|--0--0--0--7--9--7--2--
A|--0--0--0--7--9--5-----
E|--0--0--0--7--9-------- R Verse



E|--------------
B|--------------
G|--------------
D|--0--4--5--7--
A|--0--4--5--7--
E|--0--4--5--7-- R Chorus



E|--------------------------------------------------
B|--------------------------------------------------
G|--------------------7--2--------7--2--------------
D|--0--5--------0--9--7--2--0--9--7--2--0--5--0--5--
A|--0--5--------0--9--5-----0--9--5-----0--5--0--5--
E|--0--5--------0--9--------0--9--------0--5--0--5-- R Verse 2
http://www.guitartabcreator.com
Guitar Tab Creator is intended to store guitar tab created through the tool. It currently does not support in-line text editing. Any text you place in here will be lost. If you need to comment on your tab, please use the "Tab Notes" section located below.