Shit for yandi

(/) Slide Up  (\) Slide Down  (h) Hammer On  (p) Pull Off  (b) Bend (r) Release (v) Vibrato


E|----------------------------------------------------------------------------
B|----------------------------------------------------------------------------
G|----------------------------------------------------------------------------
D|--------------------------------7--4--------------------------------7--4p0--
A|--------------7p0--5p0--5p0--5--------------------7p0--5p0--5p0--5----------
E|--0--0--0--0--------------------------5--5--5--5----------------------------



E|--------------------------
B|--------------------------
G|--------------------------
D|--0--0--0--0-----------5--
A|--0--0--0--0--9--9--5--5--
E|--0--0--0--0--9--9--5--5--



E|-----------------------------
B|-----------------------------
G|-----------------------------
D|--4--x--4--5--0--2--4--5--0--
A|--4--x--4--5--0--2--4--5--0--
E|--4--x--4--5--0--2--4--5--0--



E|---------------------------------
B|---------------------------------
G|---------------------------------
D|--12--9--7--2--4--5--2--4--5--0--
A|--12--9--7--2--4--5--2--4--5--0--
E|--12--9--7--2--4--5--2--4--5--0--
http://www.guitartabcreator.com
Guitar Tab Creator is intended to store guitar tab created through the tool. It currently does not support in-line text editing. Any text you place in here will be lost. If you need to comment on your tab, please use the "Tab Notes" section located below.