New Tab

(/) Slide Up  (\) Slide Down  (h) Hammer On  (p) Pull Off  (b) Bend (r) Release (v) Vibrato

E|---------------------------------------
B|---------------------------------------
G|---------------------------------------
D|-------------------------7-4-----------
A|---------7p0-----5p0-------------------
E|-0-0-0-0-----0-0-----0-0-----0-0-0-0---



E|---------------------------------------------------------------
B|---------------------------------------------------------------
G|---------------------------------------------------------------
D|-------------------------7-4-----------------------------7-4-0-
A|---------7p0-----5p0---------------------7p0-----5p0-----------
E|-5-5-5-5-----5-5-----5-5-----5-5-5-5-5-5-----5-5-----5-5-------



E|---------------
B|---------------
G|---------11-11-
D|-0-0-9-9-11-11-
A|-0-0-9-9-9--9--
E|-0-0-9-9-------



E|-----------------------------
B|-----------------------------
G|-----------12-12-11-11-9-9-7-
D|-0-0-0-4-4-------------------
A|-0-0-0-4-4-10-10-9--9--7-7-4-
E|-0-0-0-4-4-------------------



E|--
B|--
G|--
D|--
A|--
E|--
http://www.guitartabcreator.com
Guitar Tab Creator is intended to store guitar tab created through the tool. It currently does not support in-line text editing. Any text you place in here will be lost. If you need to comment on your tab, please use the "Tab Notes" section located below.