The Devil Inside Her **LEAD GUITAR**

(/) Slide Up  (\) Slide Down  (h) Hammer On  (p) Pull Off  (b) Bend (r) Release (v) Vibrato (.) Palm Mute
E|------------------------------------------------------------------------------
B|------------------------------------------------------------------------------
G|------------------------------------------------------------------------------
D|--0--------------------------7--4-- x2---5--------------------------7--4--x2 (x2)
A|--0--0--0--0--7p0--5p0--5p0------------------5--5--5--5--7p0--5p0--5p0--------
D|--0--0--0--0---------------------------------5--5--5--5----------------------- INTRO
. . . . . .


E|-------------------------
B|-----------------7p5-----
G|----------------------7--
D|--0--0--9--5--5----------
A|--0--0--9--5--5----------
D|--0--0--9--5--5---------- VERSE 1 (x2)



E|-------------------------
B|----------------------7--
G|--7--7--7--7p6-----9-----
D|----------------7--------
A|-------------------------
D|------------------------- PRECHORUS x4/8



E|--------------------------------------
B|--------------------------------------
G|--------------------------------------
D|--5--------5--5-----------------5--5--
A|--5--5--5--5--5--5--5--5--5--5--5--5--
D|--5--5--5--5--5-----------------5--5-- BRIDGE 1 x1
. .


E|--------------------------------
B|--------------------------------
G|--------------12--12\11-9\7-----
D|--0--0--4--4-----------------7--
A|--0--0--4--4--10--10-9-\7-5--7--
D|--0--0--4--4-----------------7-- CHROUS x2
http://www.guitartabcreator.com
Guitar Tab Creator is intended to store guitar tab created through the tool. It currently does not support in-line text editing. Any text you place in here will be lost. If you need to comment on your tab, please use the "Tab Notes" section located below.