Al and the Black Cats - Hey Mr. DJ (Bass)

(/) Slide Up  (\) Slide Down  (h) Hammer On  (p) Pull Off  (b) Bend (r) Release (v) Vibrato


E|---------------------------------------------------------------------------------------------
B|---------------------------------------------------------------------------------------------
G|---------------------------------------------------------------------------------------------
D|---------------------------------------------------------4--7--------4--7--------------2-----
A|--5----5----5----5--5--5----5----5----5----5--5--5----5--------5--5--------5-----2--5--------
E|------------------------------------------------------------------------------3--------------



E|--------------------------------------------------------------
B|--------------------------------------------------------------
G|--------------------------------------------------------------
D|-----------2-----------------------------------2--------------
A|-----2--5-----------------2--2--2--2-----2--5--------4--7--4--
E|--3-----------2--2--2--2--------------3-----------5-----------



E|-----------------------------------------------------------------------------------------------------
B|-----------------------------------------------------------------------------------------------------
G|-----------------------------------------------------------------------------------------------------
D|-----4--7--4-----4--7--4-----------2-----------2-----------------------------------2-----------------
A|--5-----------5--------------2--5--------2--5-----------------2--2--2--2-----2--5--------4--7--4-----
E|--------------------------3-----------3-----------2--2--2--2--------------3-----------5--------------



E|-----------------------------------------------------------------------------
B|-----------------------------------------------------------------------------
G|-----------------------------------------------------------------------------
D|-----------------------------------------------------------------------------
A|-----------------------------------------------------------------------------
E|--3----------------0----------------3------------------5---------------------



E|-----------------------------------------------------------------------------------------------------
B|-----------------------------------------------------------------------------------------------------
G|--------------------------------------4--4-----------------------------------------------------------
D|--------------------------------4--7--------4-----------------------------------4--7-----------------
A|--------2--5--------4--7--5--5-----------------5--------2--5--------4--7--5--5--------5--4--2--0-----
E|--3--3--------5--5--------------------------------3--3--------5--5-----------------------------------



E|--------------------------------------------------------------------------------------------------
B|--------------------------------------------------------------------------------------------------
G|--------------------------------------4--4--------------------------------------------------------
D|--------------------------------4--7--------4-----------------------------------------------------
A|--------2--5--------4--7--5--5-----------------5--------2--5--------4--7--5----5----5----5--5--5--
E|--3--3--------5--5--------------------------------3--3--------5--5--------------------------------



E|--------------------------
B|--------------------------
G|--------------------------
D|--------------------------
A|--5----5----5----5--5--5--
E|--------------------------



E|-------------------------------------------------------------------------------------
B|-------------------------------------------------------------------------------------
G|-------------------------------------------------------------------------------------
D|-----------2-----------4-----------------------------------2-----------4-------------
A|-----2--5--------4--7-----5----5----5----5--5--5-----2--5--------4--7-----5----------
E|--3-----------5-----------------------------------3-----------5----------------------
http://www.guitartabcreator.com
Guitar Tab Creator is intended to store guitar tab created through the tool. It currently does not support in-line text editing. Any text you place in here will be lost. If you need to comment on your tab, please use the "Tab Notes" section located below.