Fading

(/) Slide Up  (\) Slide Down  (h) Hammer On  (p) Pull Off  (b) Bend (r) Release (v) Vibrato
E|---------------------------------|-
B|---------------------------------|-
G|---------------------------------|-
D|---------------------------------|-
A|-2-2-2-2-2-3-3-3-3-0-0-0-0-2-2-2-|-
E|-2-2-2-2-2-2-2-2-2-2-2-2-2-2-2-2-|-



E|-0----0----0----0----0----0----0---0---|-
B|---12---10---10---13---12---10---9---9-|-
G|---------------------------------------|-
D|---------------------------------------|-
A|---------------------------------------|-
E|---------------------------------------|-



E|-------------------------------------------------|-
B|-------------------------------------------------|-
G|-------------------------------------------------|-
D|-------------------------------------------------|-
A|-------3-----------5-----------3-----5-----------|-
E|-2-2-2---2-2-3-2-3-------2-2-2---2-2---2-3-2h3/6-|-



E|--------------------|--------------------|-
B|--------------------|--------------------|-
G|--------------------|--------------------|-
D|-2----2----2----2---|-2--0-2-0-2-0-2-0-3-|-
A|-2----2----2----2---|-2--0-2-0-2-0-2-0-3-|-
E|-2----2----2----2---|-2--0-2-0-2-0-2-0-3-|-



E|---------------------------------------------|-
B|---------------------------------------------|-
G|----------14------------------12----11-------|-
D|-------12----12---12-------12----12----12-12-|-
A|----10------------------10-------------------|-
E|-10-------------------0----------------------|-



E|----------------------------------------------------------|-
B|----------------------------------------------------------|-
G|----------------------------------------------------------|-
D|-2---2-2-2-2-2-2--5---5-5-5-5-5-5--10---10-10-10-10-10-10-|-
A|-2---2-2-2-2-2-2--5---5-5-5-5-5-5--10---10-10-10-10-10-10-|-
E|-2---2-2-2-2-2-2--5---5-5-5-5-5-5--10---10-10-10-10-10-10-|-



E|-------------------------------------------------|---
B|-------------------------------------------------|---
G|-------------------------------------------------|---
D|-2-2--2-2--2-2--2-2--2-2--2-2--2-2--2-2--2-2-2-3-|---
A|-2-2--2-2--2-2--2-2--2-2--2-2--2-2--2-2--2-2-2-3-|---
E|-2-2--2-2--2-2--2-2--2-2--2-2--2-2--2-2--2-2-2-3-|---



E|-------------------------------------------------|-
B|-------------------------------------------------|-
G|-------------------------------------------------|-
D|-2-2--2-2--2-2--2-2--2-2--2-2--2-2--2-2--2-2-2-0-|-
A|-2-2--2-2--2-2--2-2--2-2--2-2--2-2--2-2--2-2-2-0-|-
E|-2-2--2-2--2-2--2-2--2-2--2-2--2-2--2-2--2-2-2-0-|-



E|---------------------------------------------|-
B|---------------------------------------------|-
G|----------14------------------12----11-------|-
D|-------12----12--12--------12----12----12-12-|-
A|----10------------------10-------------------|-
E|-10-------------------0----------------------|-



E|-------------------------------------------------------------------------|-
B|-------------------------------------------------------------------------|-
G|-------------------------------------------------------------------------|-
D|-10-10-10-10-10-10-10-10-0-0-0-0-0-0-0-0-2-2-2-2-2-2-2-2-5-5-5-5-5-5-5-5-|-
A|-10-10-10-10-10-10-10-10-0-0-0-0-0-0-0-0-2-2-2-2-2-2-2-2-5-5-5-5-5-5-5-5-|-
E|-10-10-10-10-10-10-10-10-0-0-0-0-0-0-0-0-2-2-2-2-2-2-2-2-5-5-5-5-5-5-5-5-|-



E|--------------------------------------------------------------------------|--
B|--------------------------------------------------------------------------|--
G|--------------------------------------------------------------------------|--
D|--------------------------------------------------------------------------|--
A|-----------3-----------------5-----------------3--------5-----------------|--
E|--2--2--2-----2--2--3--2--3-----------2--2--2-----2--2-----2--3--2--3--5--|--
http://www.guitartabcreator.com
Guitar Tab Creator is intended to store guitar tab created through the tool. It currently does not support in-line text editing. Any text you place in here will be lost. If you need to comment on your tab, please use the "Tab Notes" section located below.