SAMBUCA GCSE COMPOSITION by Callum Wilson

(n= note( (0,0= second note galloped) (h) Hammer On  (p) Pull Off  (r) Release (v) Vibrato


E|--------------------------------------------------------------0-----------------------------
B|--------------------------------------------------------3--------3-----0--------------------
G|--------------0-----------------------0--------------2-----2--------2-----------5-----------
D|--------2--------2-----0--------0--------0-----0--0--------------------------5-----5--------
A|-----2-----2--------2--------2-----2--------2-----------------------------3-----------5-----
E|--0-----------------------3-----------------------------------------------------------------



E|-----------------------------------------------------------------------0--------------------
B|-----------------------------------------------------------------3--------3-----0-----------
G|-----------------------0-----------------------0--------------2-----2--------2-----------5--
D|-----7-----------2--------2-----0--------0--------0-----0--0--------------------------5-----
A|--7-----7-----2-----2--------2--------2-----2--------2-----------------------------3--------
E|-----------0-----------------------3--------------------------------------------------------



E|--------------------------------------------------------------------------------------------
B|--------------------------------------------------------------------------------------------
G|-----------7--------------------------------------------------------------------------------
D|--5-----7-----7-----------------------------------------------------------------------------
A|-----5-----------7--7--7--7--7--7--7--7--7--7--5--5--5--5--5--5--5--5--5--5--0--0--0--0--0--
E|--------------------------------------------------------------------------------------------



E|--------------------------------------------------------------------------------------------
B|--------------------------------------------------------------------------------------------
G|--------------------------------------------------------------------------------------------
D|--------------------------------------------------------------------------------------------
A|--0--0--0--0--0--3--3--3--5--5--5--7--7--7--7--7--7--7--7--7--7--5--5--5--5--5--5--5--5--5--
E|--------------------------------------------------------------------------------------------



E|--------------------------------------------------------------------------------------------
B|--------------------------------------------------------------------------------------------
G|--------------------------------------------------------------------------------------------
D|--------------------------------------------------------------------------------------------
A|--5--0--0--0--0--0--0--0--0--0--0--3--3--3--3--3--3--3--3--5--5--5--5--5--5--5--5--7--7--7--
E|--------------------------------------------------------------------------------------------



E|-------------------------------------------------------------------------------------------
B|-------------------------------------------------------------------------------------------
G|--9--7--9--7--9--7-----7-------------------------------------------------------------------
D|--------------------9-----9--7---------------9--7-----7--9-----7--9--10--9--7-----7-----7--
A|--------------------------------10--9--7--9--------9--------9------------------9-----9-----
E|-------------------------------------------------------------------------------------------



E|------------------------------------------------------------------------------------------
B|---------------------------------10--10-----10--10----------------------------------------
G|--9--10--9--7-----7--------7--9----------9----------9--7-----7----------------------------
D|---------------9-----7--9---------------------------------9-----7--7--9--7----------9--7--
A|----------------------------------------------------------------------------10--10--------
E|------------------------------------------------------------------------------------------



E|----------------------------------7------7--10--10--7------7--10--7--12--7--10--7------7--
B|-----------------7--10-----7--10-----10----------------10--------------------------10-----
G|-----7--9--7--9---------9-----------------------------------------------------------------
D|--9---------------------------------------------------------------------------------------
A|------------------------------------------------------------------------------------------
E|------------------------------------------------------------------------------------------



E|------7--10--7--12--7--10--7------7--15--15--15--15------------------------------15--18--
B|--10--------------------------10---------------------14----------------------14----------
G|---------------------------------------------------------16--------------16--------------
D|-------------------------------------------------------------17------17------------------
A|-----------------------------------------------------------------14----------------------
E|-----------------------------------------------------------------------------------------



E|--17--15--17--17--18--17--12--12--12--12--12--12--12---------------------------------
B|------------------------------------------------------15--12--15--12-----------------
G|----------------------------------------------------------------------14--12--14-----
D|-------------------------------------------------------------------------------------
A|-------------------------------------------------------------------------------------
E|-------------------------------------------------------------------------------------



E|------------------------------------------------------------------12--12------12--12--
B|----------------------------------------------12------12------------------------------
G|--12--14--12------12----------------------14------14------14--12----------12----------
D|--------------14------14--12----------------------------------------------------------
A|------------------------------15--14--12----------------------------------------------
E|--------------------------------------------------------------------------------------



E|------12------2--0--3--0--2--0--3--0--5--0--3--0--7--0--8--0--7--10--0--12--12--12--12--
B|----------------------------------------------------------------------------------------
G|--12------12----------------------------------------------------------------------------
D|----------------------------------------------------------------------------------------
A|----------------------------------------------------------------------------------------
E|----------------------------------------------------------------------------------------



E|----------12----------------------------------------------17--13------13--17--13--17--
B|--15--12------15--17------12--12------12--------------------------15------------------
G|----------------------15----------15------12--15--17--15------------------------------
D|--------------------------------------------------------------------------------------
A|--------------------------------------------------------------------------------------
E|--------------------------------------------------------------------------------------



E|------13--17--13--17--15------13--18--13------15------13--18--13--18--13------15--20--
B|--15----------------------15--------------15------15----------------------15----------
G|--------------------------------------------------------------------------------------
D|--------------------------------------------------------------------------------------
A|--------------------------------------------------------------------------------------
E|--------------------------------------------------------------------------------------



E|--15------15--20--17--20--15------15--20--17--20--15------15--17--13------13--17--13--
B|------17----------------------17----------------------17--------------15--------------
G|--------------------------------------------------------------------------------------
D|--------------------------------------------------------------------------------------
A|--------------------------------------------------------------------------------------
E|--------------------------------------------------------------------------------------



E|--17--13--20--15------15--20--15--20--15--17--13------13--17--13--15--13---------
B|------------------17------------------------------15----------------------15-----
G|---------------------------------------------------------------------------------
D|---------------------------------------------------------------------------------
A|---------------------------------------------------------------------------------
E|---------------------------------------------------------------------------------



E|--13--17--15--17--13------13--18--13------13--18--15--18--13------13--18--15--18--13--
B|----------------------15--------------15----------------------15----------------------
G|--------------------------------------------------------------------------------------
D|--------------------------------------------------------------------------------------
A|--------------------------------------------------------------------------------------
E|--------------------------------------------------------------------------------------



E|------13--20--15------15--20--17--20--15------15--20--17--20--15------15--17--13--------
B|--15--------------17----------------------17----------------------17--------------------
G|----------------------------------------------------------------------------------------
D|----------------------------------------------------------------------------------------
A|----------------------------------------------------------------------------------------
E|----------------------------------------------------------------------------------------
Guitar Tab Creator is intended to store guitar tab created through the tool. It currently does not support in-line text editing. Any text you place in here will be lost. If you need to comment on your tab, please use the "Tab Notes" section located below.