REMEMBER GUITAR TAB (AS WE BEGAN) by Kris Wilson

(000) string gallop  (\) Slide Down (v) tuning: DROP D DOWN A FULL STEP TO C

E|--------------------------------------------------------------------------------------------
B|--------------------------------------------------------------------------------------------
G|--------------------------------------------------------------------------------------------
D|--------------------------------------------------------------------------------------------
A|-----------------6-----6--------6--------------6-----6--------6--------------6-----6--------
E|--0--0--0--0--0-----0-----0--0-----0--0--0--0-----0-----0--0-----5--5--5--5-----5-----5--5--



E|--------------------------------------------------------------------------------------------
B|--------------------------------------------------------------------------------------------
G|--------------------------------------------------------------------------------------------
D|--------------------------------------------------------------------------------------------
A|--6-----------------------------------------------6-----6--------6--------------6-----6-----
E|-----8--8--8--8--8--8--8--7--7--7--7--0--0--0--0-----0-----0--0-----0--0--0--0-----0-----0--



E|--------------------------------------------------------------------------------------------
B|--------------------------------------------------------------------------------------------
G|--------------------------------------------------------------------------------------------
D|--------------------------------------------------------------------------------------------
A|-----6--------------6-----6--------6--------------------------------------------6-----------
E|--0-----5--5--5--5-----5-----5--5-----8--8--8--8--8--8--8--7--7--7--7--0--4--5-----0--4--5--



E|--------------------------------------------------------------------------------------------
B|--------------------------------------------------------------------------------------------
G|--------------------------------------------------------------------------------------------
D|--------------------------------------------------------------------------------------------
A|--6-----------6--5--5--3--3--4--4--1--1-----------6-----------6-----------------------------
E|-----0--4--5-----------------------------0--4--5-----0--4--5-----0--0--0--0--0--0--0--0--0--



E|--------------------------------------------------------------------------------------------
B|--------------------------------------------------------------------------------------------
G|--------------------------------------------------------------------------------------------
D|--------------------------------------------------------------------------------------------
A|-----------------------------------------------------0-----0-----0-----0--------------------
E|--0--0--0--0--0--0--0--0--0--0--0--0--0--0--0--0--0-----0-----0-----0-----0--0--0--0--0--0--



E|--------------------------------------------------------------------------------------------
B|--------------------------------------------------------------------------------------------
G|--------------------------------------------------------------------------------------------
D|--------------------------------------------------------------------------------------------
A|--------------6-----6--------6--------------6-----6--------6--------------6-----6--------6--
E|--0--0--0--0-----0-----0--0-----0--0--0--0-----0-----0--0-----5--5--5--5-----5-----5--5-----



E|--------------------------------------------------------------------------------------------
B|--------------------------------------------------------------------------------------------
G|--------------------------------------------------------------------------------------------
D|--------------------------------------7--7--7--7--7--9--9--9--9--5--5--5--5--7--7--7--7--7--
A|--------------------------------------------------------------------------------------------
E|--8--8--8--8--8--8--8--7--7--7--7--0--------------------------------------------------------



E|--------------------------------------------------------------------------------------------
B|--------------------------------------------------------------------------------------------
G|--------------------------------------------------------------------------------------------
D|--5--5--5--9--9--9--7--7--7-----------------------------------------------------------------
A|--------------------------------------------------------------------------------------------
E|-----------------------------0--0--0--0--0--0--0--0--0--0--0--0--0--0--0--0--0--0--0--0--0--



E|--------------------------------------------------------------11--11--11--11-----------------
B|---------------------------------------------------------------------------------------------
G|---------------------------------------------------------------------------------------------
D|---------------------------------------------------------------------------------------------
A|---------------------------------------------------------------------------------------------
E|--1--1--1--1--1--1--1--1--0--0--0--0--0--0--0--0--0--0--0--0------------------0--0--0--0--0--

improvised guitar solo based around these scales

E|--15--14--12----------------------------------------------------------------------------------
B|--------------14--15--12----------------------------------------------------------------------
G|--------------------------11--12--14--12--11--------------------------------------------------
D|----------------------------------------------11--12--14--12--11------------------------------
A|------------------------------------------------------------------14--12--10------------------
E|------------------------------------------------------------------------------14--12--10--12--



E|--------------------------------------------------------------------------------------------
B|--------------------------------------------------------------------------------------------
G|--------------------------------------------------------------------------------------------
D|--------------------------------------------------5--7--5-----------------------------------
A|-----------------------------------------5--6--5-----------5--6--5--6--5--------------------
E|--0--0--0--0--0--0--0--0--0--0--0--0--0-----------------------------------0--0--0--0--0--0--
By KRIS WILSON, <end.
Guitar Tab Creator is intended to store guitar tab created through the tool. It currently does not support in-line text editing. Any text you place in here will be lost. If you need to comment on your tab, please use the "Tab Notes" section located below.