Wasn't Feeling So Well

(/) Slide Up  (\) Slide Down  (h) Hammer On  (p) Pull Off  (b) Bend (r) Release (v) Vibrato


E|-2---2---2---4---4---4---6---6---6---2---2---2---7---7---7---6---6---6---6---6---6---6---6---6---
B|-------------------------------------------------------------------------------------------------
G|---3---3---3---4---4---4---6---6---6---3---3---3---8---8---8---6---6---6---7---7---7---6---6---6-
D|-------------------------------------------------------------------------------------------------
A|-------------------------------------------------------------------------------------------------
E|-------------------------------------------------------------------------------------------------



E|-7---7---7---6---6---6---6---6---6---6---6---6---
B|-------------------------------------------------
G|---8---8---8---6---6---6---7---7---7---6---6---6-
D|-------------------------------------------------
A|-------------------------------------------------
E|-------------------------------------------------



E|-11----11----11----11----11----11----13----13----13----13----13----13----14----14----14----
B|-------------------------------------------------------------------------------------------
G|----11----11----11----11----11----11----13----13----13----13----13----13----15----15----15-
D|-------------------------------------------------------------------------------------------
A|-------------------------------------------------------------------------------------------
E|-------------------------------------------------------------------------------------------



E|-14----14----14----18-16-14-14-13-11---
B|---------------------------------------
G|----15----15----15-18-16-15-15-13-11---
D|---------------------------------------
A|---------------------------------------
E|---------------------------------------



E|-11----11----11----11----11----11----13----13----13----13----13----13----
B|-------------------------------------------------------------------------
G|----11----11----11----11----11----11----13----13----13----13----13----13-
D|-------------------------------------------------------------------------
A|-------------------------------------------------------------------------
E|-------------------------------------------------------------------------



E|-14----14----14----14----14----14-18-16-14-14-13-11-18-16-14-14-13-11-18-16-14-14-13-11-10-
B|-------------------------------------------------------------------------------------------
G|----15----15----15----15----15----18-16-15-15-13-11-18-16-15-15-13-11-18-16-15-15-13-11-11-
D|-------------------------------------------------------------------------------------------
A|-------------------------------------------------------------------------------------------
E|-------------------------------------------------------------------------------------------
http://www.guitartabcreator.com
Guitar Tab Creator is intended to store guitar tab created through the tool. It currently does not support in-line text editing. Any text you place in here will be lost. If you need to comment on your tab, please use the "Tab Notes" section located below.