Caravansérail

(/) Slide Up  (\) Slide Down  (h) Hammer On  (p) Pull Off  (b) Bend (r) Release (v) Vibrato

E|--7--------7--------5--------3--------3--------2--------0-----------
B|-----0--------0--------0--------0--------0--------0--------0--------
G|--------0--------0--------0--------0--------0--------0--------0-----
D|--------------------------------------------------------------------
A|--------------------------------------------------------------------
E|--0-----------------------------------0--------------------------0--



E|--0--------3--------7--------12--------10--------8--------8--------8--------7--------5-----------
B|-----0--------0--------0---------0---------0--------0--------5--------5--------5--------5--------
G|--------0--------0--------0---------0---------0--------0--------5--------5--------5--------5-----
D|-------------------------------------------------------------------------------------------------
A|----------------------------------------------------------0--------------------------------------
E|--0--------------------------0-------------------------------------------------------------------



E|-----5--7\8--7--5--8--7--------------------2--3--3--2--2--0--0--
B|----------------------------------------0-----0--0--0--0--0--0--
G|-------------------------------------0--------0--0--0--0--0--0--
D|----------------------------------1-----------------------2--2--
A|--0----------------------0--1--2--------------------------2--2--
E|----------------------------------------------------------------
http://www.guitartabcreator.com
Guitar Tab Creator is intended to store guitar tab created through the tool. It currently does not support in-line text editing. Any text you place in here will be lost. If you need to comment on your tab, please use the "Tab Notes" section located below.