dont stay down

(/) Slide Up  (\) Slide Down  (h) Hammer On  (p) Pull Off  (b) Bend (r) Release (v) Vibrato

E|------14------14------14------14------14------14------14------14------14------14--
B|--12------12------12------12------12----------------------------------------------
G|------------------------------------------14------14------14------14------14------
D|----------------------------------------------------------------------------------
A|----------------------------------------------------------------------------------
E|----------------------------------------------------------------------------------



E|------14------14------14------14------14------14------14------14------14------14--
B|----------------------------------------------------------------------------------
G|--12------12------12------12------12----------------------------------------------
D|------------------------------------------14------14------14------14------14------
A|----------------------------------------------------------------------------------
E|----------------------------------------------------------------------------------



E|--14b15--14------14b15--14------14b15--14------14b15--14------
B|-------------12-----------------------------------------------
G|----------------------------14-------------12-----------------
D|----------------------------------------------------------14--
A|--------------------------------------------------------------
E|--------------------------------------------------------------
http://www.guitartabcreator.com
Guitar Tab Creator is intended to store guitar tab created through the tool. It currently does not support in-line text editing. Any text you place in here will be lost. If you need to comment on your tab, please use the "Tab Notes" section located below.