Sometimes I Try

(/) Slide Up  (\) Slide Down  (h) Hammer On  (p) Pull Off  (b) Bend (r) Release (v) Vibrato


E|---------------------------------------------------|-----------------------------------------------
B|--------1-----------1----/3--3--1--3--1h3p1--------|--------1-----------1----/3----1----3p1--------
G|--2--2-----2--2--2---------------------------2--0--|--2--2-----2--2--2-----------------------2--0--
D|--2--2-----2--2--2---------------------------------|--2--2-----2--2--2-----------------------------
A|---------------------------------------------------|-----------------------------------------------
E|---------------------------------------------------|-----------------------------------------------



E|----------------------------------------------|--
B|--------1-----------1----3p1--3p1--3p1--------|--
G|--2--2-----2--2--2----------------------2--0--|--
D|--2--2-----2--2--2----------------------------|--
A|----------------------------------------------|--
E|----------------------------------------------|--



E|------------------------------------------------------|--
B|------------------------------------------------------|--
G|-----2--0----------0----------0----------2----2-------|--
D|--2-------------2----------0-------4--4---------------|--
A|-------------3----------2------------------------0----|--
E|------------------------------------------------------|--



E|--
B|--
G|--
D|--
A|--
E|--
http://www.guitartabcreator.com
Guitar Tab Creator is intended to store guitar tab created through the tool. It currently does not support in-line text editing. Any text you place in here will be lost. If you need to comment on your tab, please use the "Tab Notes" section located below.