My Generation Guitar 1

(/) Slide Up  (\) Slide Down  (h) Hammer On  (p) Pull Off  (b) Bend (r) Release (v) Vibrato
E|--1--1--1--1--1--1--1--1--1--1--1--1--1--1--0--0--0--0--0--0--0--
B|--2--2--2--2--2--2--2--2--2--2--2--2--2--2--2--2--2--2--2--2--2--
G|--3--3--3--3--3--3--3--2--2--2--2--2--2--2--2--2--2--2--2--2--2--
D|-----------------------------------------------------------------
A|-----------------------------------------------------------------
E|-----------------------------------------------------------------



E|--0--0--0--0--0--0--0--0--0--0--0--0--0--0--0--0--0--0--0--0--0--
B|--1--1--1--1--1--1--1--1--1--1--1--1--1--1--0--0--0--0--0--0--0--
G|--2--2--2--2--2--2--2--0--0--0--0--0--0--0--0--0--0--0--0--0--0--
D|-----------------------------------------------------------------
A|-----------------------------------------------------------------
E|-----------------------------------------------------------------



E|--0--0--0--0--0--0--0--0--0--0------------1--------1------------
B|--1--1--1--1--1--1--1--1--1--1--0--0------2--------1------------
G|--0--0--0--0--0--2--2--2--2--2--2--2------1--------3------------
D|--------------------------------2--2------0--------3------------
A|---------------------------------------------------1------------
E|----------------------------------------------------------------



E|--------1--------1--------1--------1--------1--------1--------1--------1--------1--
B|-----2--------2--------2--------2--------2--------2--------2--------2--------2-----
G|--3--------3--------3--------3--------2--------2--------2--------2--------2--------
D|-----------------------------------------------------------------------------------
A|-----------------------------------------------------------------------------------
E|-----------------------------------------------------------------------------------



E|--------0--------0--------0--------0--------0--------0--------0--------0--
B|-----2--------2--------2--------2--------1--------1--------1--------1-----
G|--2--------2--------2--------2--------2--------2--------2--------2--------
D|--------------------------------------------------------------------------
A|--------------------------------------------------------------------------
E|--------------------------------------------------------------------------



E|--------0--------0--------0--------0--------0--------0--------0--------0--
B|-----1--------1--------1--------1--------0--------0--------0--------0-----
G|--0--------0--------0--------0--------0--------0--------0--------0--------
D|--------------------------------------------------------------------------
A|--------------------------------------------------------------------------
E|--------------------------------------------------------------------------



E|--
B|--
G|--
D|--
A|--
E|--
http://www.guitartabcreator.com
Guitar Tab Creator is intended to store guitar tab created through the tool. It currently does not support in-line text editing. Any text you place in here will be lost. If you need to comment on your tab, please use the "Tab Notes" section located below.