Little Nipple Song

(/) Slide Up  (\) Slide Down  (h) Hammer On  (p) Pull Off  (b) Bend (r) Release (v) Vibrato
E|-------------------------------------------
B|-------------------------------------------
G|-------------------------------------------
D|-----------2-------------------2-----------
A|--0--2--3-------------0--2--3-----2--3-----
E|----------------------------------------3--



E|-----------------------------------------------------------------------------------------
B|-----------------------------------------------------------------------------------------
G|--------------------------------------------------------------------------5--5------7----
D|-----------0-------------0------------5--5----7------5--5------7----------5--5------7----
A|--0h3h5---------0h3h5-----------------3--3----5------3--3------5----------3--3------5----
E|-----------------------------------------------------------------------------------------



E|-------------------5--5------7------7--7-----------7--7-----------------
B|--5--5------7------5--5------7------7--7-----------7--7-----------------
G|--5--5------7------5--5------7------7--7-----------7--7-----------------
D|--5--5------7------5--5------7------7--7----7------7--7--------7--5--7--
A|--3--3------5------3--3------5------5--5----7------5--5--------7--5--7--
E|--------------------------------------------5------------------5--3--5--



E|-----------------------------
B|-----------------------------
G|-----------------------------
D|-----------------------5-----
A|--5--3--5--3----5/7-------7--
E|-----------------------------



E|--
B|--
G|--
D|--
A|--
E|--
http://www.guitartabcreator.com
Guitar Tab Creator is intended to store guitar tab created through the tool. It currently does not support in-line text editing. Any text you place in here will be lost. If you need to comment on your tab, please use the "Tab Notes" section located below.