Solo Idea

(/) Slide Up  (\) Slide Down  (h) Hammer On  (p) Pull Off  (b) Bend (r) Release (v) Vibrato


E|-12-13-15-12-13-15-12-13-15-12-13-15-12-------12-------------15-------15-12/15/12v-
B|----------------------------------------13-------13-------13-------13--------------
G|-------------------------------------------14-------14-12-------12-----------------
D|-----------------------------------------------------------------------------------
A|-----------------------------------------------------------------------------------
E|-----------------------------------------------------------------------------------



E|-12/17\12v-12/18\12v-12/20-20h21p20-19h20p19-18h19p18-17h18p17-16h17p16-15h16p15-12v-
B|-------------------------------------------------------------------------------------
G|-------------------------------------------------------------------------------------
D|-------------------------------------------------------------------------------------
A|-------------------------------------------------------------------------------------
E|-------------------------------------------------------------------------------------



E|-------12----------------14-------------------
B|----11----------12----13----------14----------
G|-10----------11----12----------13----13-------
D|----------10----------------12----------12\7v-
A|----------------------------------------------
E|----------------------------------------------
http://www.guitartabcreator.com
Guitar Tab Creator is intended to store guitar tab created through the tool. It currently does not support in-line text editing. Any text you place in here will be lost. If you need to comment on your tab, please use the "Tab Notes" section located below.