Lonely sort of riff

(/) Slide Up  (\) Slide Down  (h) Hammer On  (p) Pull Off  (b) Bend (r) Release (v) Vibrato


E|-3-2-3-3-2-3-5-3-2-------3-2-3-3-2-3-5-3-2----------------------------
B|-------------------3-5-0-------------------3-5-0-0-7v-----8-7-5\3-0---
G|------------------------------------------------------5-7-------------
D|----------------------------------------------------------------------
A|----------------------------------------------------------------------
E|----------------------------------------------------------------------



E|-----7-5--------------
B|-7-8-----5/7---7-7\5v-
G|-------------7--------
D|----------------------
A|----------------------
E|----------------------
http://www.guitartabcreator.com
Guitar Tab Creator is intended to store guitar tab created through the tool. It currently does not support in-line text editing. Any text you place in here will be lost. If you need to comment on your tab, please use the "Tab Notes" section located below.