Holiday Boredom

(/) Slide Up  (\) Slide Down  (h) Hammer On  (p) Pull Off  (b) Bend (r) Release (v) Vibrato
E|--12----------------------------------------------
B|------13--------------13--12----------------------
G|----------12------12----------12--------------12--
D|--------------14------------------14--12--14------
A|--------------------------------------------------
E|--------------------------------------------------



E|--10----------------------------------------------
B|------11--------------11--10----------------------
G|----------10------10----------10--------------10--
D|--------------12------------------12--10--12------
A|--------------------------------------------------
E|--------------------------------------------------



E|--8--------------------------------------
B|-----9------------9--8-------------------
G|--------8------8--------8-------------8--
D|-----------10--------------10--8--10-----
A|-----------------------------------------
E|-----------------------------------------



E|--6-----------------------------------------
B|-----7-----------7--6-----------------6-----
G|--------6-----6--------6-----------6-----7--
D|-----------8--------------8--6--8--------7--
A|-----------------------------------------5--
E|--------------------------------------------



E|--------------------------------------------------------
B|--------------------------------------------------------
G|--7--7--7--7--7--7--5--5--5--5--5--5--9--9--9--9--9--9--
D|--7--7--7--7--7--7--5--5--5--5--5--5--9--9--9--9--9--9--
A|--5--5--5--5--5--5--3--3--3--3--3--3--7--7--7--7--7--7--
E|--------------------------------------------------------



E|--------------------------------------------------------
B|--------------------------------------------------------
G|--7--7--7--7--7--7--5--5--5--5--5--5--9--9--9--9--9--9--
D|--7--7--7--7--7--7--5--5--5--5--5--5--9--9--9--9--9--9--
A|--5--5--5--5--5--5--3--3--3--3--3--3--7--7--7--7--7--7--
E|--------------------------------------------------------



E|--------------------------------------
B|--------------------------------------
G|--7--7--7--7--7--7--7--7--7--7--7--7--
D|--7--7--7--7--7--7--7--7--7--7--7--7--
A|--5--5--5--5--5--5--5--5--5--5--5--5--
E|--------------------------------------



E|------------------------------------------------------------------------------------------
B|--------------------------------------------------------------------------9---------------
G|--7--------7--5--------5--9--------9--7--------7--5--------5--9--------9-----9v--9\0/12v--
D|--7-----7-----5-----5-----9-----9-----7-----7-----5-----5-----9-----9---------------------
A|--5--5--------3--3--------7--7--------5--5--------3--3--------7--7------------------------
E|------------------------------------------------------------------------------------------



E|----------------------------------------------------------------------------------
B|----------------------------------------------------------------------------------
G|----------------------------------------------------------------------------------
D|--3----3--3--3--3--3--2----2--2--2--2--2--5----5--5--5--5--5--1----1--1--1--1--1--
A|--3-------------------2-------------------5-------------------1-------------------
E|--3-------------------2-------------------5-------------------1-------------------



E|-------------------------------------------------------------------------------------
B|-------------------------------------------------------------------------------------
G|-------------------------------------------------------------------------------------
D|--3----3--3--3--3--3--2----2--2--2--2--2--5----5--5--5--5--5--1----1--1--1--1--1-----
A|--3-------------------2-------------------5-------------------1----------------------
E|--3-------------------2-------------------5-------------------1----------------------



E|-----------------
B|-----------------
G|-----------------
D|-----------------
A|--3--3--3--3--3--
E|-----------------



E|----------------------------------------------------------------------------10--9--
B|--------------------------------------------16--15\12------------9--10-------------
G|--15v--17v--17b----17v------------------17-------------13--12\9---------11---------
D|------------------------16----------16---------------------------------------------
A|----------------------------17--15-------------------------------------------------
E|-----------------------------------------------------------------------------------



E|-------------10--9-------------10--9------------------------------------12----------10--
B|--9--10-------------9--10-------------10--10--10--10--9--9/13v------13----------11------
G|---------11----------------11-----------------------------------14----------12----------
D|----------------------------------------------------------------------------------------
A|----------------------------------------------------------------------------------------
E|----------------------------------------------------------------------------------------



E|---------8--------6-----
B|------9--------7--------
G|--10--------8--------7--
D|---------------------7--
A|---------------------5--
E|------------------------
http://www.guitartabcreator.com
Guitar Tab Creator is intended to store guitar tab created through the tool. It currently does not support in-line text editing. Any text you place in here will be lost. If you need to comment on your tab, please use the "Tab Notes" section located below.