FUCK THIS SHIT!

(/) Slide Up  (\) Slide Down  (h) Hammer On  (p) Pull Off  (b) Bend (r) Release (v) Vibrato


E|-----------------------------------------------
B|-----------------------------------------------
G|-----5-----7-----------------------------------
D|-----5-----7-----2-----2-----2-----2-----2-----
A|-----3-----5-----2-----2-----2-----2-----2-----
E|-----------------0-----0-----0-----0-----0-----



E|---------------------------------------------------------
B|---------------------------------------------------------
G|---------------------------------------------------------
D|-----10---9--------9---------------------9--------9---10- X2
A|-7-7----7---7-10-7---7-10-7-9-7-9-7-10-7---7-10-7---7----
E|---------------------------------------------------------



E|-----------------------------------------------------
B|-----------------------------------------------------
G|-----------------------------------------------------
D|-----------------------------------------------------
A|-0-0-8-0-7-0-3-0-7-0-3-0-2-0-0-2-0-3-0-7-0-3-0-7-0-8-
E|-0-0-8-0-7-0-3-0-7-0-3-0-2-0-0-2-0-3-0-7-0-3-0-7-0-8-



E|-------------------------------------------------
B|-------------------------------------------------
G|-5-5-5-5-5-5-7-7-7-7-7-7-5-5-5-5-5-5-7-7-7-7-7-9-
D|-5-5-5-5-5-5-7-7-7-7-7-7-5-5-5-5-5-5-7-7-7-7-7-9-
A|-3-3-3-3-3-3-5-5-5-5-5-5-3-3-3-3-3-3-5-5-5-5-5-7-
E|-------------------------------------------------



E|--------------------------------------------------------------------------
B|--------------------------------------------------------------------------
G|-------9-------9-5-5-5-5-7-7-7-7-------9-------9-5-5-5-5-7-7-7-7-8-9-1011-
D|-------9-------9-5-5-5-5-7-7-7-7-------9-------9-5-5-5-5-7-7-7-7-8-9-1011-
A|-0-0-0-7-0-0-0-7-3-3-3-3-5-5-5-5-0-0-0-7-0-0-0-7-3-3-3-3-5-5-5-5-6-7-8-9--
E|-0-0-0---0-0-0-------------------0-0-0---0-0-0----------------------------



E|-------------------------------------------------
B|-------------------------------------------------
G|-2-2-2-2-2-2-5-5-5-5-5-5-------------------------
D|-2-2-2-2-2-2-5-5-5-5-5-5-5-5-5-5-5-5-3-3-3-2-2-2- X2
A|-0-0-0-0-0-0-3-3-3-3-3-3-5-5-5-5-5-5-3-3-3-2-2-2-
E|-------------------------3-3-3-3-3-3-1-1-1-0-0-0-

VERSE
BREAK
PRE CHORUS
CHORUS
BREAK
CHORUS

http://www.guitartabcreator.com
Guitar Tab Creator is intended to store guitar tab created through the tool. It currently does not support in-line text editing. Any text you place in here will be lost. If you need to comment on your tab, please use the "Tab Notes" section located below.