My Song

(/) Slide Up  (\) Slide Down  (h) Hammer On  (p) Pull Off  (b) Bend (r) Release (v) Vibrato
E|----------9--------------9--------------9--------------9-------------10-------------10------
B|------11-----11------11-----11------11-----11------11-----11-----11------11-----11------11--
G|--10-------------10-------------------------------------------9--------------9--------------
D|--------------------------------10-------------10-------------------------------------------
A|--------------------------------------------------------------------------------------------
E|--------------------------------------------------------------------------------------------



E|-------------12v----b14------r12v----------------------------------------------------------
B|-------------------------------------------------------------------------------3--4--3-----
G|----------------------------------------------------------------------------3--------------
D|--4--5--6----------------------------------------------------------------3-----------------
A|--4--5--6-------------------------------------------------------------3--------------------
E|--2--3--4----------------------------2--2--2--2--4--4--2--2--2--2--5-----------------------



E|----------------------------------------------------------------------12h13p12h13p12h13b15--
B|------------------------------------------------------------------10------------------------
G|--3-----------------------------------------------------------10----------------------------
D|-----3--------------------------------------------------------------------------------------
A|--------3-----------------------------------------------------------------------------------
E|-----------3--2--2--2--2--4--2--2--2--2--5--4--2--2--2--2--4--------------------------------



E|--15r13p12p11p9--
B|-----------------
G|-----------------
D|-----------------
A|-----------------
E|-----------------
http://www.guitartabcreator.com
Guitar Tab Creator is intended to store guitar tab created through the tool. It currently does not support in-line text editing. Any text you place in here will be lost. If you need to comment on your tab, please use the "Tab Notes" section located below.