HERE'S TO HOPING - Capital City Blues

(/) Slide Up  (\) Slide Down  (h) Hammer On  (p) Pull Off  (b) Bend (r) Release (v) Vibrato

E|-----------------------------------------------------------------------------------
B|-----------------------------------------------------------------------------------
G|-----------------------------------------------------------------------------------
D|-----------------------------------------------------------------------------------
A|-----------------------------------------------------------------------------------
E|--0--0--0--0--3--5--6--0--0--0--0--3--5--6--5--0--0--0--3--5--6--1--1--1--1--4--3--



E|-----------------------------------------------------------------------------------
B|-----------------------------------------------------------------------------------
G|-----------------------------------------------------------------------------------
D|-----------------------------------------------------------------------------------
A|-----------------------------------------------------------------------------------
E|--0--0--0--0--3--5--6--0--0--0--0--3--5--6--5--0--0--0--3--5--6--1--1--1--1--4--3--



E|-----------------------------------------------------------------------------------------
B|-----------------------------------------------------------------------------------------
G|-----------------------------------------------------------------------------------------
D|-----------------------------------------------------------------------------------------
A|--------------------------------------------------------------------------------4-----3--
E|--0--0--0--0--3--5--6--0--0--0--0--3--5--6--5--0--0--0--3--5--6--1--1--1--1--4-----3-----



E|-----------------------------------------------------------------------------------
B|-----------------------------------------------------------------------------------
G|-----------------------------------------------------------------------------------
D|-----------------------------------------------------------------------------------
A|-----------------------------------------------------------------------------------
E|--0--0--0--3--5--6--0--0--0--0--3--5--6--5--0--0--0--3--5--6--1--1--1--1--4--3--0--



E|-----------------------------------------------------------------------------------
B|-----------------------------------------------------------------------------------
G|-----------------------------------------------------------------------------------
D|-----------------------------------------------------------------------------------
A|-----------------------------------------------------------------------------------
E|--0--0--0--0--3--5--6--0--0--0--0--0--3--5--6--0--1--1--1--4--4--4--4--3--3--3--3--



E|--------------------------------------------------------------
B|--------------------------------------------------------------
G|--------------------------------------------------------------
D|--------------------------------------------------------------
A|--------------------------------------------------------------
E|--0--0--0--0--3--5--6--0--0--0--0--0--3--5--6--0--1--1--1--1--



E|--------------------------------------
B|--------------------------------------
G|--------------------------------------
D|--------------------------------------
A|--------------------------------------
E|--0--0--0--3--3--3--3--5--6--0--1--0--



E|-----------------------------------------------------------------------------
B|-----------------------------------------------------------------------------
G|-----------------------------------------------------------------------------
D|-----------------------------------------------------------------------------
A|-----------------------------------------------------------------------------
E|--0--0--0--3--3--3--3--5--6--0--1--1--1--1--1--1--1--4--4--4--4--3--3--3--3--



E|-----------------------------------------
B|-----------------------------------------
G|-----------------------------------------
D|-----------------------------------------
A|-----------------------------------------
E|--0--0--0--3--3--3--3--5--6--0--1--0-----



E|--------------------------------------------------------------------------------
B|--------------------------------------------------------------------------------
G|--------------------------------------------------------------------------------
D|--------------------------------------------------------------------------------
A|--------------------------------------------------------------------------------
E|--0--0--0--3--3--3--3--5--6--0--1--1--1--1--1--1--1--4--4--4--4--3--3--3--3--0--



E|--------------------------------------------------------------
B|--------------------------------------------------------------
G|--------------------------------------------------------------
D|--------------------------------------------------------------
A|--------------------1-----0-----1--1--1--1--1--1--1-----0-----
E|--0--0--0--0--0--0-----1-----0--0--0--0--0--0--0-----1-----0--



E|--------------------------------------------------------------
B|--------------------------------------------------------------
G|--------------------------------------------------------------
D|--------------------------------------------------------------
A|--------------------1-----0-----1--1--1--1--1--1--1-----0-----
E|--0--0--0--0--0--0-----1-----0--0--0--0--0--0--0-----1-----0--



E|--
B|--
G|--
D|--
A|--
E|--



E|---------------------------------------------------------
B|---------------------------------------------------------
G|---------------------------------------------------------
D|-----------------------------------1-----0---------------
A|--------------------1-----0-----------1-----0------------
E|--0--0--0--0--0--0-----1-----0--0--------------0/12\0----



E|-----------------------------------------------------------------------------------------
B|-----------------------------------------------------------------------------------------
G|-----------------------------------------------------------------------------------------
D|-----------------------------------------------------------------1-----0-----------------
A|--------------------------------------1-----0-----------------------1-----0--1-----0-----
E|--0--0--0--0--0--0--0--0--0--0--0--0-----1-----0--1--1--1--1--1-----------------1-----0--



E|---------------------------------------------------------------------------------------------
B|---------------------------------------------------------------------------------------------
G|---------------------------------------------------------------------------------------------
D|--------------------------------------1-----0------------------------3-----1-----4-----0-----
A|--1--1--1--1--1--1--1--1--1--1--1--1-----1-----0------------------------3-----1-----4-----0--
E|--0--0--0--0--0--0--0--0--0--0--0--0--------------0/3----3--3--3--3--------------------------



E|-----------------------------------------------------------------------------------------
B|-----------------------------------------------------------------------------------------
G|-----------------------------------------------------------------------------------------
D|-----------------------------------------------------------------1-----0-----------------
A|--------------------------------------1-----0-----------------------1-----0--1-----0-----
E|--0--0--0--0--0--0--0--0--0--0--0--0-----1-----0--1--1--1--1--1-----------------1-----0--



E|-----------------------------------------------------------------------------------
B|-----------------------------------------------------------------------------------
G|-----------------------------------------------------------------------------------
D|--------------------------------------1-----0------------------------3-----1-----4b
A|--1--1--1--1--1--1--1--1--1--1--1--1-----1-----0------------------------3-----1----
E|--0--0--0--0--0--0--0--0--0--0--0--0--------------0/3----3--3--3--3----------------



E|--------------------------------------------------------------------------
B|--------------------------------------------------------------------------
G|--------------------------------------------------------------------------
D|--------------------------------------------------------------------------
A|--------------------------------------------------------------------------
E|--0--0--0--0--0--0--0--0--0--0--0--0--0--0--0--0--0--0--1--4--5--2--1--0--



E|--------------------------------------------------------------
B|--------------------------------------------------------------
G|--------------------------------------------------------------
D|--------------------------------------------------4-----1-----
A|--------------------------------------------------2-----0-----
E|--0--0--0--0--0--0--0--0--0--0--0--0--1--4--5--2-----3-----2--



E|-----------------------------------------------------------------------------
B|-----------------------------------------------------------------------------
G|-----------------------------------------------------------------------------
D|-----------------------------------------------------------------------------
A|-----------------------------------------------------------------------------
E|--0--0--0--0--0--0--0--0--0--0--0--0--0--0--0--0--0--0--1--4--5--2--1--0-----



E|-----------------------------
B|-----------------------------
G|-----------------------------
D|-----------------------------
A|-----------------------------
E|--1--1--1--1--4--5--2--0--1--



E|--------------------------------------------------------------------------
B|--------------------------------------------------------------------------
G|--------------------------------------------------------------------------
D|--------------------------------------------------------------------------
A|--------------------------------------------------------------------------
E|--0--0--0--0--0--0--0--0--0--0--0--0--0--0--0--0--0--0--1--4--5--2--1--0--



E|-----------------------------------------------------------------
B|-----------------------------------------------------------------
G|-----------------------------------------------------------------
D|--------------------------------------------------4--------------
A|--------------------------------------------------2-----1--0-----
E|--0--0--0--0--0--0--0--0--0--0--0--0--1--4--5--2-----3-----------



E|--------------------------------------------------------------------------
B|--------------------------------------------------------------------------
G|--------------------------------------------------------------------------
D|--------------------------------------------------------------------------
A|--------------------------------------------------------------------------
E|--0--0--0--0--0--0--0--0--0--0--0--0--0--0--0--0--0--0--1--4--5--2--1--0--



E|-----------------------------------------------------
B|-----------------------------------------------------
G|-----------------------------------------------------
D|-----------------------------------------------------
A|-----------------------------------------------------
E|--1--1--1--1--2--1--2--1--2--1--2--1--2--1--2--1--0--
http://www.guitartabcreator.com
Guitar Tab Creator is intended to store guitar tab created through the tool. It currently does not support in-line text editing. Any text you place in here will be lost. If you need to comment on your tab, please use the "Tab Notes" section located below.