STREET LIFE - THE CRUSADERS

(/) Slide Up  (\) Slide Down  (h) Hammer On  (p) Pull Off  (b) Bend (r) Release (v) Vibrato

E|--7--8--9--10--|-------------------------------------|---------------------------------------|-----
B|--3--4--6--7---|-------------------------------------|---------------------------------------|-----
G|--3--4--6--7---|----------------------------------1--|------------------------------1--------|-----
D|--3--4--6--7---|--1--1--1--3------1--1--2--3---------|--1--1--1--3--1--1--2--3---------3--3--|-----
A|--3--4--6--7---|-------------------------------------|---------------------------------------|-----
E|---------------|-------------------------------------|---------------------------------------|-----



E|-----------------------------------------|-------------------------------------------------
B|-----------------------------------------|-------------------------------------------------
G|----------------------------------1------|------------------------------3------1-----------
D|--1--1--1--3------1--1--2--3-------------|--1--1--1--3------1--1--2--3------------3--3-----
A|-----------------------------------------|-------------------------------------------------
E|-----------------------------------------|-------------------------------------------------



E|--
B|--
G|--
D|--
A|--
E|--
http://www.guitartabcreator.com
Guitar Tab Creator is intended to store guitar tab created through the tool. It currently does not support in-line text editing. Any text you place in here will be lost. If you need to comment on your tab, please use the "Tab Notes" section located below.