pale n grey cock

(/) Slide Up  (\) Slide Down  (h) Hammer On  (p) Pull Off  (b) Bend (r) Release (v) Vibrato


E|-------------------|----------|---------------------|-----------------|---
B|-------------------|----------|---------------------|-----------------|---
G|-------------------|----------|---------------------|-----------------|---
D|-------------------|----------|---------------------|-----------------|---
A|-------------------|----------|---------------------|-----------------|---
E|-2-1-0-0-5-4-0-0-2-|-1--------|-2-1-0-0-5-4-0-0-2-1-|-1-1-1-1-1-1-1-1-|---



E|---------------------------------|---------------------------------|-
B|---------------------------------|---------------------------------|-
G|---------------------------------|---------------------------------|-
D|---------------------------------|---------------------------------|-
A|---------------------------------|---------------------------------|-
E|-0-0-0-2-1-0-0-0-0-5-0-4-0-2-0-1-|-0-0-0-2-1-0-0-0-0-5-0-4-0-2-0-1-|-



E|-------|---------------------------------|---------------------------------|-
B|-------|---------------------------------|---------------------------------|-
G|-------|---------------------------------|---------------------------------|-
D|-------|---------------------------------|---------------------------------|-
A|-------|---------------------------------|---------------------------------|-
E|-2-1-2-|-2-1-0-1-2-1-0-1-2-1-0-1-5-4-2-1-|-2-1-0-1-2-1-0-1-2-1-0-1-5-4-2-1-|-



E|-------|-----------------------------------------------------------------------|-
B|-------|-----------------------------------------------------------------------|-
G|-------|-----------------------------------------------------------------------|-
D|-------|-----------------------------------------------------------------------|-
A|-------|-----------------------------------------------------------------------|-
E|-2-1-0-|-0-0-0-0-0-0-0-0-1-1-1-1-0-0-0-0-0-0-0-0-5-5-4-4-0-0-1-1-4-4-0-0-0-1-1-|-



E|-----------------------------------------------------------------|---
B|-----------------------------------------------------------------|---
G|-----------------------------------------------------------------|---
D|-----------------------------------------------------------------|---
A|-----------------------------------------------------------------|---
E|-0-0-0-0-0-0-0-0-1-1-1-1-0-0-0-0-0-0-0-0-5-5-4-4-8-8-8-8-8-8-8-8-|---



E|--------------|---------------|----------------|------------|-
B|--------------|---------------|----------------|------------|-
G|--------------|---------------|----------------|------------|-
D|--------------|---------------|----------------|------------|-
A|--------------|---------------|----------------|------------|-
E|-0----1--0----|-5-4-0-1-4-0-1-|-0----1---0-----|-5-4-5-8----|-
http://www.guitartabcreator.com
Guitar Tab Creator is intended to store guitar tab created through the tool. It currently does not support in-line text editing. Any text you place in here will be lost. If you need to comment on your tab, please use the "Tab Notes" section located below.