No mercy

(/) Slide Up  (\) Slide Down  (h) Hammer On  (p) Pull Off  (b) Bend (r) Release (v) Vibrato

E|--------------------------------------------------|--------------------------|--
B|--------------------------------------------------|--------------------------|--
G|--------------------------------------------------|--------------------------|--
D|--------------------------------------------------|--------------------------|--
A|--------------------------------------------------|--------------------------|--
E|--2--1--2--5--2--1--2--5--2--1--2--5--4--3--5--1--|--2--2----1--1--1------0--|--



E|--------------------------------------------------|--
B|--------------------------------------------------|--
G|--------------------------------------------------|--
D|--------------------------------------------------|--
A|--------------------------------------1--1--------|--
E|--4--4--4--3--3--3--5--5--5--1--1--1--------2--2--|--



E|----------------------------------------------------------------------------------------------|--
B|----------------------------------------------------------------------------------------------|--
G|----------------------------------------------------------------------------------------------|--
D|----------------------------------------------------------------------------------------------|--
A|----------------------------------------------------------------------------------1--1--------|--
E|--0----0--0--0--0--0--0--0--0--0--0--0--0--0--0--4--4--4--3--3--3--5--5--5--0--0--------2--2--|--



E|--------------|--
B|--------------|--
G|--------------|--
D|--------------|--
A|--------------|--
E|--1--------0--|--
http://www.guitartabcreator.com
Guitar Tab Creator is intended to store guitar tab created through the tool. It currently does not support in-line text editing. Any text you place in here will be lost. If you need to comment on your tab, please use the "Tab Notes" section located below.