Nameless

(/) Slide Up  (\) Slide Down  (h) Hammer On  (p) Pull Off  (b) Bend (r) Release (v) Vibrato

E|-----------|-----------|--------------------------------------------|--
B|-----------|-----------|--------------------------------------------|--
G|-----------|-----------|--------------------------------------------|--
D|-----------|-----------|--------------------------------------------|--
A|-----------|-----------|--------------------------------------------|--
E|--0--1--0--|--0--1--0--|--0--1--0--0--0--0--0--0--5--4--0--1--1--4--|--



E|-------------------------------------------------|-----
B|-------------------------------------------------|-----
G|-------------------------------------------------|-----
D|-------------------------------------------------|-----
A|-------------------------------------------------|-----
E|--0--1--0--0--0--0--0--0--0--8--7--0--1----1--4--|-----



E|-----------------------------------------------------------------------------------------------------
B|-----------------------------------------------------------------------------------------------------
G|-----------------------------------------------------------------------------------------------------
D|-----------------------------------------------------------------------------------------------------
A|-----------------------------------------------------------------------------------------------------
E|--0--0--0--0--1--1--1--1--1--1--1--1--1--1--1--1--0--0--0--0--1--1--1--1--1--5--4--0--1--0--1--4-----



E|--------------------------------------------------------------------------------|--
B|--------------------------------------------------------------------------------|--
G|--------------------------------------------------------------------------------|--
D|--------------------------------------------------------------------------------|--
A|--------------------------------------------------------------------------------|--
E|--0--0--0--0--1--1--1--1--1--1--1--1--1--1--1--1--8--7--4--5--0--1--4--1--0--1--|--



E|------------------------------------|--
B|------------------------------------|--
G|------------------------------------|--
D|------------------------------------|--
A|------------------------------------|--
E|--8----7----4--5--0--1--4--1--0--1--|--



E|--------------------------|-----------------------------|--
B|--------------------------|-----------------------------|--
G|--------------------------|-----------------------------|--
D|--------------------------|-----------------------------|--
A|--------------------------|-----------------------------|--
E|--0--1--0--5--4--0--1--4--|--0--1--0--8--7--0--1--3--1--|--
http://www.guitartabcreator.com
Guitar Tab Creator is intended to store guitar tab created through the tool. It currently does not support in-line text editing. Any text you place in here will be lost. If you need to comment on your tab, please use the "Tab Notes" section located below.