What If Its Not Me Solo Tab

(/) Slide Up  (\) Slide Down  (h) Hammer On  (p) Pull Off  (b) Bend (r) Release (v) Vibrato


E|--------------------------------------------------------5--6--8/10\8--6--8p6p5-----5----------
B|----------------5--6p5--------------5--6p5-----5--6--8--------------------------6-----6p5-----
G|--5/7--7--7--7----------7--5-----7----------7----------------------------------------------7--
D|------------------------------7---------------------------------------------------------------
A|--3-5--5--5-----------------------------------------------------------------------------------
E|----------------------------------------------------------------------------------------------



E|-------------------------------------------------------------------------------------------
B|--5-----------5--6------------------------------------------------------------10h11h13-----
G|-----7--7--7--------10--10--12/14\12--10--9--10--10--12--10p9--9--9--9h10h12---------------
D|-------------------------------------------------------------------------------------------
A|-------------------------------------------------------------------------------------------
E|-------------------------------------------------------------------------------------------



E|--10h12h13/15p12---------15--13h15p13--15b17r15--13h15p13------13----------------15p13------
B|------------------13/15------------------------------------15------17p15p13--15---------15--
G|--------------------------------------------------------------------------------------------
D|--------------------------------------------------------------------------------------------
A|--------------------------------------------------------------------------------------------
E|--------------------------------------------------------------------------------------------



E|--13--15--17p15p13------13--17p15p13--15p13p12--------------------------------------------
B|--------------------15--------------------------17p15p13------13h15h17p15p13------13--15--
G|----------------------------------------------------------14------------------14----------
D|------------------------------------------------------------------------------------------
A|------------------------------------------------------------------------------------------
E|------------------------------------------------------------------------------------------



E|----------12--13--13--13--15--15p13------13--15p13--17p13--15p13------13--15p13------13--
B|--15--15-----------------------------15---------------------------15-------------15------
G|-----------------------------------------------------------------------------------------
D|-----------------------------------------------------------------------------------------
A|-----------------------------------------------------------------------------------------
E|-----------------------------------------------------------------------------------------



E|--13p12------12--13p12--15p12--13p12------12--13p12--------------
B|---------13---------------------------13-----------------13--15--
G|-----------------------------------------------------14----------
D|-----------------------------------------------------------------
A|-----------------------------------------------------------------
E|-----------------------------------------------------------------
http://www.guitartabcreator.com
Guitar Tab Creator is intended to store guitar tab created through the tool. It currently does not support in-line text editing. Any text you place in here will be lost. If you need to comment on your tab, please use the "Tab Notes" section located below.