Spanish Gypsy

(/) Slide Up  (\) Slide Down  (h) Hammer On  (p) Pull Off  (b) Bend (r) Release (v) Vibrato

E|--5--------------------------------0--
B|--6--5--6--------------------------5--
G|-----6--7--6--7--6h7p6-----6-------6--
D|-----------7--8---------8-----8/7--7--
A|-----------------------------------0--
E|--------------------------------------



E|---------------------------------------------------------
B|-----------5h6p5-----------------5h6--5--6--8--6--8--10--
G|--------6---------6-----------6--------------------------
D|-----7---------------7-----7-----------------------------
A|--8---------------------8--------------------------------
E|---------------------------------------------------------



E|--5h6--5--5--6--9--6--5--6--5-----5-----------------------------
B|--5----5-----------------------8-----8--6--8--6--5--------------
G|----------------------------------------------------7-----------
D|----------------------------------------------------------------
A|-------------------------------------------------------------5--
E|-------------------------------------------------------5--8-----



E|----------------------------
B|--5/6--5--6--6h8p6p5-----5--
G|--7-------------------7--6--
D|--8----------------------7--
A|--8----------------------7--
E|----------------------------



E|----------------------1--
B|----------------------3--
G|--7--4-----4/6-----6--2--
D|----------------------0--
A|-------------------------
E|--5-----3-------5--------
http://www.guitartabcreator.com
Guitar Tab Creator is intended to store guitar tab created through the tool. It currently does not support in-line text editing. Any text you place in here will be lost. If you need to comment on your tab, please use the "Tab Notes" section located below.