Fun Riffs

(/) Slide Up  (\) Slide Down  (h) Hammer On  (p) Pull Off  (b) Bend (r) Release (v) Vibrato

E|--------------------------------------7h9h10--
B|------------------------------7h9h10----------
G|-----------------------6h7h9------------------
D|----------------6h7h9-------------------------
A|---------5h7h9--------------------------------
E|--5h7h9---------------------------------------



E|------------------------7h9h10-----------9h10h12------------10h12h14--12--
B|----------------7h9h10----------9h10h12-----------10h12h14----------------
G|---------6h7h9------------------------------------------------------------
D|--6h7h9-------------------------------------------------------------------
A|--------------------------------------------------------------------------
E|--------------------------------------------------------------------------



E|--14p12p10------------12p10p9---------------
B|------------14p12p10-----------12p10p9------
G|----------------------------------------11--
D|--------------------------------------------
A|--------------------------------------------
E|--------------------------------------------
http://www.guitartabcreator.com
Guitar Tab Creator is intended to store guitar tab created through the tool. It currently does not support in-line text editing. Any text you place in here will be lost. If you need to comment on your tab, please use the "Tab Notes" section located below.