Dang Ni - JJ Lin

(/) Slide Up  (\) Slide Down  (h) Hammer On  (p) Pull Off  (b) Bend (r) Release (v) Vibrato
E|--3-----------------3--3-----------5--
B|--------------------------------------
G|--------5--4--5-----------5--4--5-----
D|-----5-----------5--------------------
A|--------------------------------------
E|--------------------------------------



E|--3-----------------3--3-----------
B|--------------------------6--5-----
G|--------5--4--5-----------------5--
D|-----5-----------5-----------------
A|-----------------------------------
E|-----------------------------------



E|--------------
B|--------------
G|-----------5--
D|--2--3--5-----
A|--------------
E|--------------



E|--------------
B|-----------3--
G|--------------
D|--2--3--5-----
A|--------------
E|--------------



E|--3--------------------
B|-----------3--3--5--5--
G|--------5--------------
D|-----5-----------------
A|-----------------------
E|-----------------------



E|-----------------
B|--5--5--3--3-----
G|--------------5--
D|-----------------
A|-----------------
E|-----------------



E|--------------------------
B|--------------------5-----
G|--5--5--4--4--2--5--------
D|-----------------------5--
A|--------------------------
E|--------------------------



E|-----------------------------
B|-----------5--5--6--5--5--3--
G|-----------------------------
D|--2--1--2--------------------
A|-----------------------------
E|-----------------------------



E|--------
B|-----5--
G|--5-----
D|--------
A|--------
E|--------



E|--------------------------------------------------------------------
B|--------3--3--5--5--5--5--3--3--------------------------------5-----
G|-----5--------------------------5--------5--5--5--4--4--2--5--------
D|--5--------------------------------2--3--------------------------5--
A|--------------------------------------------------------------------
E|--------------------------------------------------------------------



E|--------------------------------------------------------------
B|--------------------3--3-----3--3-----------------3--------3--
G|-----------2--5--2--------5--------5--5--------5--------------
D|--3--2--3--------------------------------2--5--------2--5-----
A|--------------------------------------------------------------
E|--------------------------------------------------------------
http://www.guitartabcreator.com
Guitar Tab Creator is intended to store guitar tab created through the tool. It currently does not support in-line text editing. Any text you place in here will be lost. If you need to comment on your tab, please use the "Tab Notes" section located below.