Moving On

(/) Slide Up  (\) Slide Down  (h) Hammer On  (p) Pull Off  (b) Bend (r) Release (v) Vibrato

E|-----4--6--7--6----------------------------------------
B|--4--------------4--4h5p4------------------------------
G|---------------------------6--8------------------------
D|---------------------------------9--6--9---------------
A|------------------------------------------9--9/11--6v--
E|-------------------------------------------------------



E|-------------------------------------------------------------
B|-------------------------------------------------------------
G|-----------------------------------9--11--9--8--8h9p8--6--8--
D|-----------5--6--6/8--9--9/11--13----------------------------
A|--6--5--6----------------------------------------------------
E|-------------------------------------------------------------



E|-----4--6--7--6----------------------------------------
B|--4--------------4--4h5p4------------------------------
G|---------------------------6--8------------------------
D|---------------------------------9--6--9---------------
A|------------------------------------------9--9/11--6v--
E|-------------------------------------------------------



E|---------------------------------------------
B|----------------------4--4h5-----------------
G|-----------3--4--4/6----------6--4-----------
D|--6--5--6---------------------------5--6-----
A|---------------------------------------------
E|---------------------------------------------
http://www.guitartabcreator.com
Guitar Tab Creator is intended to store guitar tab created through the tool. It currently does not support in-line text editing. Any text you place in here will be lost. If you need to comment on your tab, please use the "Tab Notes" section located below.