Maria - Michel Telo

(/) Slide Up  (\) Slide Down  (h) Hammer On  (p) Pull Off  (b) Bend (r) Release (v) Vibrato

E|---------------|--3-----3-----|---------------|--3-----3-----|-----3-----2--|--
B|---------------|--0--0--0--0--|--0--1--0------|--0--0--0--0--|--0-----0--3--|--
G|---------------|--------------|---------------|--------------|-----------2--|--
D|--0--2--0------|--------------|---------------|--------------|-----------0--|--
A|---------------|--------------|---------------|--------------|--------------|--
E|---------------|--3-----3-----|---------------|--3-----3-----|--------------|--



E|-----0--2--2--|---------------|--3-----3-----|---------------|--3-----3-----|--
B|--3-----------|--0--1--0------|--1--1--1--1--|--0--1--0------|--0--0--0--0--|--
G|--------------|---------------|--------------|---------------|--------------|--
D|-----------0--|---------------|--------------|---------------|--------------|--
A|--------------|---------------|--3-----3-----|---------------|--------------|--
E|--------------|---------------|--------------|---------------|--3-----3-----|--



E|---------------|--3-----3-----|-----3-----2--|-----0--2--2--|---------------|--
B|--0--1--0------|--0--0--0--0--|--0-----0--3--|--3-----------|--0--1--0------|--
G|---------------|--------------|-----------2--|--------------|---------------|--
D|---------------|--------------|-----------0--|-----------0--|---------------|--
A|---------------|--------------|--------------|--------------|---------------|--
E|---------------|--3-----3-----|--------------|--------------|---------------|--



E|--3-----3-----|---------------|--3-----3-----|---------------|--3-----3-----|--
B|--1--1--1--1--|--0--1--0------|--0--0--0--0--|--0--1--0------|--0--0--0--0--|--
G|--------------|---------------|--------------|---------------|--------------|--
D|--------------|---------------|--------------|---------------|--------------|--
A|--3-----3-----|---------------|--------------|---------------|--------------|--
E|--------------|---------------|--3-----3-----|---------------|--3-----3-----|--



E|---------------|--3-----3-----|--------------|--3-----3-----|---------------|--
B|---------------|--1--1--1--1--|--0--1--------|--1--1--1--1--|--0--1--0------|--
G|---------------|--------------|--------------|--------------|---------------|--
D|--0--2--0------|--------------|--------------|--------------|---------------|--
A|---------------|--3-----3-----|--------------|--0-----0-----|---------------|--
E|---------------|--------------|--------------|--------------|---------------|--



E|--3-----3-----|---------------|--3-----3-----|---------------|--3-----3-----|--
B|--0--0--0--0--|--0--1--0------|--0--0--0--0--|---------------|--1--1--1--1--|--
G|--------------|---------------|--------------|---------------|--------------|--
D|--------------|---------------|--------------|--0--2--0------|--------------|--
A|--------------|---------------|--------------|---------------|--3-----3-----|--
E|--3-----3-----|---------------|--3-----3-----|---------------|--------------|--



E|---------------|--3-----3-----|---------------|--2-----2-----|--0--2-----2--|--3--|--
B|--0--1--0------|--1--1--1--1--|--0--1--0------|-----3-----3--|--------3-----|--3--|--
G|---------------|--------------|---------------|--------------|--------------|--2--|--
D|---------------|--------------|---------------|--0-----0-----|--0--------0--|--0--|--
A|---------------|--0-----0-----|---------------|--------------|--------------|-----|--
E|---------------|--------------|---------------|--------------|--------------|-----|--



E|--3--|--3--|--3--|--3--|--3--|--3--|--3--|--3--|--3--|--3--|--3--|--3--|--3--|--2--|-----
B|--1--|--1--|--1--|--1--|--0--|--1--|--0--|--0--|--1--|--1--|--1--|--1--|--0--|--3--|-----
G|--0--|--0--|--0--|--0--|--0--|--0--|--0--|--0--|--0--|--0--|--0--|--0--|--0--|--2--|-----
D|--2--|--2--|--2--|--2--|--0--|--2--|--0--|--0--|--2--|--2--|--2--|--2--|--0--|--0--|-----
A|--3--|--3--|--0--|--0--|--2--|--3--|--2--|--2--|--3--|--3--|--0--|--0--|--2--|-----|-----
E|-----|-----|-----|-----|--3--|-----|--3--|--3--|-----|-----|-----|-----|--3--|-----|-----



E|--3--|--3--|--3--|--2--|--3--|--
B|--1--|--1--|--0--|--3--|--1--|--
G|--0--|--0--|--0--|--2--|--0--|--
D|--2--|--2--|--0--|--0--|--2--|--
A|--3--|--3--|--2--|-----|--3--|--
E|-----|-----|--3--|-----|-----|--



E|---------------|--3-----3-----|---------------|--3-----3-----|--3--|--
B|---------------|--0--0--0--0--|--0--1--0------|--0--0--0--0--|--0--|--
G|---------------|--------------|---------------|--------------|--0--|--
D|--0--2--0------|--------------|---------------|--------------|--0--|--
A|---------------|--------------|---------------|--------------|--2--|--
E|---------------|--3-----3-----|---------------|--3-----3-----|--3--|--
http://www.guitartabcreator.com
Guitar Tab Creator is intended to store guitar tab created through the tool. It currently does not support in-line text editing. Any text you place in here will be lost. If you need to comment on your tab, please use the "Tab Notes" section located below.