Dashboard-Modest Mouse

(/) Slide Up  (\) Slide Down  (h) Hammer On  (p) Pull Off  (b) Bend (r) Release (v) Vibrato

E|---9---7-------7---9------5---3-------3---3------5---5-------5------5---5-------5---
B|---7---7-------7---7------3---3-------3---3------7---5-------5------7---5-------5---
G|-------7-------7---7------4---4-------4---4------6---6-------6------6---6-------6---
D|--------------------------5---5-------5---5------7---7-------7------7---7-------7---
A|------------------------------------------------------------------------------------
E|-----------7----------------------3----------------------5------------------5-------



E|--7--7-----7--7----3--3-----3----3--5--5-----5----5--5-----5--
B|--8--7-----7--8----5--3-----3----3--7--5-----5----7--5-----5--
G|--7--7-----7--7----4--4-----4----4--6--6-----6----6--6-----6--
D|--9--9-----9--9----5--5-----5----5--7--7-----7----7--7-----7--
A|--------------------------------------------------------------
E|--------7----------------3----------------5-------------5-----
http://www.guitartabcreator.com
Guitar Tab Creator is intended to store guitar tab created through the tool. It currently does not support in-line text editing. Any text you place in here will be lost. If you need to comment on your tab, please use the "Tab Notes" section located below.