New Life Worship - Bless the Lord

(/) Slide Up  (\) Slide Down  (h) Hammer On  (p) Pull Off  (b) Bend (r) Release (v) Vibrato


E|-----------------------------------------------------------------------------------
B|--------------------4--4--4--7--7--7--7--7--7--5--5--5-----------4--4--4--4--4--4--
G|--4--4--4--6--6--6--------------------------------------6--6--6--------------------
D|-----------------------------------------------------------------------------------
A|-----------------------------------------------------------------------------------
E|-----------------------------------------------------------------------------------



E|--------------------------11--11--11--14--14--14--14--14--14--12--12--12--------------11--11--11--
B|--12--12--12--14--14--14--------------------------------------------------14--14--14--------------
G|--------------------------------------------------------------------------------------------------
D|--------------------------------------------------------------------------------------------------
A|--------------------------------------------------------------------------------------------------
E|--------------------------------------------------------------------------------------------------
http://www.guitartabcreator.com
Guitar Tab Creator is intended to store guitar tab created through the tool. It currently does not support in-line text editing. Any text you place in here will be lost. If you need to comment on your tab, please use the "Tab Notes" section located below.