Bridge - 2

(/) Slide Up  (\) Slide Down  (h) Hammer On  (p) Pull Off  (b) Bend (r) Release (v) Vibrato


E|--------------19--19--19--16--16--16--14--14--14--------------14--14--14--------------
B|--17--17--17--------------------------------------16--16--16--------------14--14--14--
G|--------------------------------------------------------------------------------------
D|--------------------------------------------------------------------------------------
A|--------------------------------------------------------------------------------------
E|--------------------------------------------------------------------------------------



E|--------------14--14--14--------------
B|--------------------------16--16--16--
G|--13--13--13--------------------------
D|--------------------------------------
A|--------------------------------------
E|--------------------------------------



E|------14----------
B|--14--------------
G|----------15------
D|--------------16--
A|------------------
E|------------------
http://www.guitartabcreator.com
Guitar Tab Creator is intended to store guitar tab created through the tool. It currently does not support in-line text editing. Any text you place in here will be lost. If you need to comment on your tab, please use the "Tab Notes" section located below.