Great Bright Morning

(/) Slide Up  (\) Slide Down  (h) Hammer On  (p) Pull Off  (b) Bend (r) Release (v) Vibrato

E|---------------------------------------
B|---------------------------------------
G|-------0---0---0-----------------------
D|---2---------------2---2---0-------2---
A|-------------------------------3-------
E|---------------------------------------



E|---------------------------
B|---------------------------
G|---------------------------
D|-----------0---2-----------
A|---3---3-----------0---3---
E|---------------------------



E|----------
B|----------
G|----------
D|----------
A|--3--3/3--
E|----------
http://www.guitartabcreator.com
Guitar Tab Creator is intended to store guitar tab created through the tool. It currently does not support in-line text editing. Any text you place in here will be lost. If you need to comment on your tab, please use the "Tab Notes" section located below.