Going to California By Led Zeppelin

(/) Slide Up  (\) Slide Down  (h) Hammer On  (p) Pull Off  (b) Bend (r) Release (v) Vibrato

E|-----0-----------0--------0-----------0-----
B|-----------3--------------------3-----------
G|--------------------------------------------
D|--------0-----------0--------0-----------0--
A|--------------------------------------------
E|--0-----------0--------0-----------0--------



E|------------------------------------------------------------
B|-----10------10------10------10-----10------10------10------
G|--9------11------12------11------9------11------12------11--
D|------------------------------------------------------------
A|------------------------------------------------------------
E|------------------------------------------------------------



E|--5--------4-----------------------5--------4-----------------------2p0----------
B|-----0--------0-----5-----3-----------0--------0-----5-----3----------------1/3--
G|--------0--------0-----0-----0-----------0--------0-----0-----0------------------
D|--------------------------------0--------------------------------0--0----0-------
A|---------------------------------------------------------------------------------
E|--5--------5--------5-----5--------5--------5--------5-----5---------------------



E|--------------------------------------------2p0----------
B|--6--------6--------6--3--------3--------3----------1/3--
G|-----5--------5-----------0--------0---------------------
D|--0-----0--------0-----------0--------0-----0----0-------
A|-----------------------2---------------------------------
E|---------------------------------------------------------



E|--5--------5--------5--------5--------5--5--------5--------5--------5--------
B|-----6--------6--------6--------6-----------6--------6--------6--------6-----
G|--------7--------7--------7--------7-----------7--------7--------7--------7--
D|--0-----------------0-----------------0--------------------------------------
A|-----------------------------------------------------------------------------
E|-----------------------------------------------------------------------------



E|------------------------------------------------------------
B|--0h2--------2--------2--------0h2--------2--------2--------
G|-------0--------0--------0----------0--------0--------0-----
D|----------2--------2--------2----------2--------2--------2--
A|--0----------------------------0----------------------------
E|------------------------------------------------------------
http://www.guitartabcreator.com
Guitar Tab Creator is intended to store guitar tab created through the tool. It currently does not support in-line text editing. Any text you place in here will be lost. If you need to comment on your tab, please use the "Tab Notes" section located below.