Oliver Welch - Unit 4 Composition

Oliver Welch - Unit 4 Composition - Tuning: Drop D (DADGBe) 
(~) = Hold (h) = Harmonic

PART ONE

Guitar 1 - Heavy Distortion (0:00-0:07)

e|-------------|-------------|-------------|-------------|
B|-------------|-------------|-------------|-------------|
G|-------------|-------------|-------------|-------------|
D|--0-0-8-7-7--|--0-0-3-5-5--|--0-0-8-7-7--|--0-0-3-5-5--|
A|--0-0-8-7-7--|--0-0-3-5-5--|--0-0-8-7-7--|--0-0-3-5-5--|
D|--0-0-8-7-7--|--0-0-3-5-5--|--0-0-8-7-7--|--0-0-3-5-5--|

Guitar 1 + 2 - Heavy Distortion (0:07-0:28)

e|-------------|-------------|-------------|-------------|-------------|-------------|
B|-------------|-------------|-------------|-------------|-------------|-------------|
G|-------------|-------------|-------------|-------------|-------------|-------------|
D|--0-0-8-7-7--|--0-0-3-5-5--|--0-0-8-7-7--|--0-0-3-5-5--|--0-0-8-7-7--|--0-0-3-5-5--|
A|--0-0-8-7-7--|--0-0-3-5-5--|--0-0-8-7-7--|--0-0-3-5-5--|--0-0-8-7-7--|--0-0-3-5-5--|
D|--0-0-8-7-7--|--0-0-3-5-5--|--0-0-8-7-7--|--0-0-3-5-5--|--0-0-8-7-7--|--0-0-3-5-5--|

e|-------------|-------------|-------------|-------------|
B|-------------|-------------|-------------|-------------|
G|-------------|-------------|-------------|-------------|
D|--0-0-8-7-7--|--0-0-3-5-5--|--0~---------|-------------|
A|--0-0-8-7-7--|--0-0-3-5-5--|--0~---------|-------------|
D|--0-0-8-7-7--|--0-0-3-5-5--|--0~---------|-------------|

PART TWO

Guitar 1 - Heavy Distortion (0:29-0:56)

e|-------------|-------------|-------------|-------------|-------------|-------------|
B|-------------|-------------|-------------|-------------|-------------|-------------|
G|-------------|-------------|-------------|-------------|-------------|-------------|
D|--0-0-0-8-7-7|--0-0-0-3-5-3|--0-0-0-8-7-7|--0-0-0-3-5-3|--0-0-0-8-7-7|--0-0-0-3-5-3|
A|--0-0-0-8-7-7|--0-0-0-3-5-3|--0-0-0-8-7-7|--0-0-0-3-5-3|--0-0-0-8-7-7|--0-0-0-3-5-3|
D|--0-0-0-8-7-7|--0-0-0-3-5-3|--0-0-0-8-7-7|--0-0-0-3-5-3|--0-0-0-8-7-7|--0-0-0-3-5-3|

e|-------------|-------------|-------------|-------------|-------------|-------------|
B|-------------|-------------|-------------|-------------|-------------|-------------|
G|-------------|-------------|-------------|-------------|-------------|-------------|
D|--0-0-0-8-7-7|--0-0-0-3-5-3|--0-0-0-8-7-7|--0-0-0-3-5-3|--0-0-0-8-7-7|--0-0-0-3-5-3|
A|--0-0-0-8-7-7|--0-0-0-3-5-3|--0-0-0-8-7-7|--0-0-0-3-5-3|--0-0-0-8-7-7|--0-0-0-3-5-3|
D|--0-0-0-8-7-7|--0-0-0-3-5-3|--0-0-0-8-7-7|--0-0-0-3-5-3|--0-0-0-8-7-7|--0-0-0-3-5-3|

e|-------------|-------------|-------------|-------------|
B|-------------|-------------|-------------|-------------|
G|-------------|-------------|-------------|-------------|
D|--0-0-0-8-7-7|--0-0-0-3-5-3|--0-0-0-8-7-7|--0-0-0-3-5-3|
A|--0-0-0-8-7-7|--0-0-0-3-5-3|--0-0-0-8-7-7|--0-0-0-3-5-3|
D|--0-0-0-8-7-7|--0-0-0-3-5-3|--0-0-0-8-7-7|--0-0-0-3-5-3|






Guitar 2 - Heavy Distortion (0:42-0:56) - (On top of Guitar 1)

e|-------------|-------------|-------------|-------------|
B|-------------|-------------|-------------|-------------|
G|--------8-7--|--------3-5-3|--------8-7--|--------3-5-3|
D|--------8-7--|--------3-5-3|--------8-7--|--------3-5-3|
A|--------6-5--|--------1-3-1|--------6-5--|--------1-3-1|
D|-------------|-------------|-------------|-------------|

e|-------------|-------------|-------------|-------------|
B|-------------|-------------|-------------|-------------|
G|--------8-7--|--------3-5-3|--------8-7--|--------3-5-3|
D|--------8-7--|--------3-5-3|--------8-7--|--------3-5-3|
A|--------6-5--|--------1-3-1|--------6-5--|--------1-3-1|
D|-------------|-------------|-------------|-------------|

CHORUS

Guitar 1 + 2 - Heavy Distortion (0:56-1:24)

e|-------------|-------------|-------------|-------------|-------------|-------------|
B|-------------|-------------|-------------|-------------|-------------|-------------|
G|-------------|-------------|-------------|-7-7-7-7-7-7-|-------------|-------------|
D|-8-8-8-8-8-8-|-3-3-3-3-3-3-|-5-5-5-5-5-5-|-7-7-7-7-7-7-|-8-8-8-8-8-8-|-3-3-3-3-3-3-|
A|-8-8-8-8-8-8-|-3-3-3-3-3-3-|-5-5-5-5-5-5-|-5-5-5-5-5-5-|-8-8-8-8-8-8-|-3-3-3-3-3-3-|
D|-8-8-8-8-8-8-|-3-3-3-3-3-3-|-5-5-5-5-5-5-|-------------|-8-8-8-8-8-8-|-3-3-3-3-3-3-|

e|-------------|-------------|-------------|-------------|-------------|-------------|
B|-------------|-------------|-------------|-------------|-------------|-------------|
G|-------------|-7-7-7-9-999-|-------------|-------------|-------------|-7-7-7-7-7-7-|
D|-7-7-7-7-7-7-|-7-7-7-9-999-|-8-8-8-8-8-8-|-3-3-3-3-3-3-|-5-5-5-5-5-5-|-7-7-7-7-7-7-|
A|-7-7-7-7-7-7-|-5-5-5-7-777-|-8-8-8-8-8-8-|-3-3-3-3-3-3-|-5-5-5-5-5-5-|-5-5-5-5-5-5-|
D|-7-7-7-7-7-7-|-------------|-8-8-8-8-8-8-|-3-3-3-3-3-3-|-5-5-5-5-5-5-|-------------|

e|-------------|-------------|-------------|-------------|-------------|-------------|
B|-------------|-------------|-------------|-------------|-------------|-------------|
G|-------------|-------------|-------------|-------------|-------------|-------------|
D|-8-8-8-8-8-8-|-3-3-3-3-3-3-|-7-7-7-7-7-7-|-7-7-7-7-7-7-|-7-7-7-7-7-7-|-7-7-7-7-7-7-|
A|-8-8-8-8-8-8-|-3-3-3-3-3-3-|-7-7-7-7-7-7-|-7-7-7-7-7-7-|-7-7-7-7-7-7-|-7-7-7-7-7-7-|
D|-8-8-8-8-8-8-|-3-3-3-3-3-3-|-7-7-7-7-7-7-|-7-7-7-7-7-7-|-7-7-7-7-7-7-|-7-7-7-7-7-7-|

PART THREE A

Guitar 1 - Heavy Distortion (1:24-1:41)

e|-------------|-------------|-------------|--------h5~--|-------------|------------|
B|-------------|-------------|-------------|--------h5~--|-------------|------------|
G|-------------|-------------|-------------|--------h5~--|-------------|------------|
D|--0-0-8-7-7--|--0-0-3-5-5--|--0-0-8-7-7--|--0-0-3------|--0-0-8-7-7--|--0-0-3-5-5-|
A|--0-0-8-7-7--|--0-0-3-5-5--|--0-0-8-7-7--|--0-0-3------|--0-0-8-7-7--|--0-0-3-5-5-|
D|--0-0-8-7-7--|--0-0-3-5-5--|--0-0-8-7-7--|--0-0-3------|--0-0-8-7-7--|--0-0-3-5-5-|

e|-------------|-------------|-------------|-------------|-------------|
B|-------------|-------------|-------------|-------------|-------------|
G|-------------|-------------|-------------|-------------|-------------|
D|--0-0-8-7-7--|--0-0-3~-----|-------------|-------------|-------------|
A|--0-0-8-7-7--|--0-0-3~-----|-------------|-------------|-------------|
D|--0-0-8-7-7--|--0-0-3~-----|-------------|-------------|-------------|

PART THREE B

Guitar 1 - Heavy Distortion (1:42-2:08)

e|-------------|-------------|-------------|-------------|-------------|-------------|
B|-------------|-------------|-------------|-------------|-------------|-------------|
G|-------------|-------------|-------------|-------------|-------------|-------------|
D|--0-0-8-7-7--|--0-0-3-53-53|--0-0-8-7-7--|--0-0-3-53-53|--0-0-8-7-7--|--0-0-3-53-53|
A|--0-0-8-7-7--|--0-0-3-53-53|--0-0-8-7-7--|--0-0-3-53-53|--0-0-8-7-7--|--0-0-3-53-53|
D|--0-0-8-7-7--|--0-0-3-53-53|--0-0-8-7-7--|--0-0-3-53-53|--0-0-8-7-7--|--0-0-3-53-53|

e|-------------|-------------|-------------|-------------|-------------|-------------|
B|-------------|-------------|-------------|-------------|-------------|-------------|
G|-------------|-------------|-------------|-------------|-------------|-------------|
D|--0-0-8-7-7--|--0-0-3-53-53|--0-0-8-7-7--|--0-0-3-53-53|--0-0-8-7-7--|--0-0-3-53-53|
A|--0-0-8-7-7--|--0-0-3-53-53|--0-0-8-7-7--|--0-0-3-53-53|--0-0-8-7-7--|--0-0-3-53-53|
D|--0-0-8-7-7--|--0-0-3-53-53|--0-0-8-7-7--|--0-0-3-53-53|--0-0-8-7-7--|--0-0-3-53-53|

e|-------------|-------------|-------------|-------------|
B|-------------|-------------|-------------|-------------|
G|-------------|-------------|-------------|-------------|
D|--0-0-8-7-7--|--0-0-3-53-53|--0-0-8-7-7--|--0-0-3-53-53|
A|--0-0-8-7-7--|--0-0-3-53-53|--0-0-8-7-7--|--0-0-3-53-53|
D|--0-0-8-7-7--|--0-0-3-53-53|--0-0-8-7-7--|--0-0-3-53-53|

PART FOUR

Guitar 1 - Heavy Distortion (2:08-2:21)

e|-------------|-------------|-------------|-------------|
B|-------------|-------------|-------------|-------------|
G|-------------|-------------|-------------|-------------|
D|-3-3-3-3-3-3-|-8-8-8-8-8-8-|-5-5-5-5-5-5-|-7-7-7-7-7-7-|
A|-3-3-3-3-3-3-|-8-8-8-8-8-8-|-5-5-5-5-5-5-|-7-7-7-7-7-7-|
D|-3-3-3-3-3-3-|-8-8-8-8-8-8-|-5-5-5-5-5-5-|-7-7-7-7-7-7-|

e|-------------|-------------|-------------|-------------|
B|-------------|-------------|-------------|-------------|
G|-------------|-------------|-------------|-------------|
D|-3-3-3-3-3-3-|-8-8-8-8-8-8-|-5-5-5-5-5-5-|-7-7-7-7-7-7-|
A|-3-3-3-3-3-3-|-8-8-8-8-8-8-|-5-5-5-5-5-5-|-7-7-7-7-7-7-|
D|-3-3-3-3-3-3-|-8-8-8-8-8-8-|-5-5-5-5-5-5-|-7-7-7-7-7-7-|

PART FIVE (THREE B)

Guitar 1 - Heavy Distortion (2:21-2:35)

e|-------------|-------------|-------------|-------------|-------------|-------------|
B|-------------|-------------|-------------|-------------|-------------|-------------|
G|-------------|-------------|-------------|-------------|-------------|-------------|
D|--0-0-8-7-7--|--0-0-3-53-53|--0-0-8-7-7--|--0-0-3-53-53|--0-0-8-7-7--|--0-0-3-53-53|
A|--0-0-8-7-7--|--0-0-3-53-53|--0-0-8-7-7--|--0-0-3-53-53|--0-0-8-7-7--|--0-0-3-53-53|
D|--0-0-8-7-7--|--0-0-3-53-53|--0-0-8-7-7--|--0-0-3-53-53|--0-0-8-7-7--|--0-0-3-53-53|

e|-------------|-------------|-------------|
B|-------------|-------------|-------------|
G|-------------|-------------|-------------|
D|--0-0-8-7-7--|--0-0-3-53-53|-0-----------|
A|--0-0-8-7-7--|--0-0-3-53-53|-0-----------|
D|--0-0-8-7-7--|--0-0-3-53-53|-0-----------|om
Guitar Tab Creator is intended to store guitar tab created through the tool. It currently does not support in-line text editing. Any text you place in here will be lost. If you need to comment on your tab, please use the "Tab Notes" section located below.