Oliver Welch - Unit 2 Composition (Guitar Tab)

Oliver Welch - Unit 2 Composition (Guitar Tab) - Tuning: Standard (EADGBe) - Tempo: 132bpm
x = Dead String
~ = Hold
. = Palm Mute

Guitar 1 - Part 1 - (0:00 - 0:21)

e|--------------------|-----------------|
B|--------------------|-----------------|
G|--------------------|-7-7-7-x---------|
D|-3-3-3-x-10-10-10-x-|-7-7-7-x-8-8-8-x-| x 6
A|-3-3-3-x-10-10-10-x-|-5-5-5-x-8-8-8-x-|
E|-1-1-1-x-8--8--8--x-|---------6-6-6-x-|

Guitar 1 - Part 2 - (0:21 - 0:35)

e|-----------------|--------------------|
B|-----------------|--------------------|
G|---------7-7-7-x-|--------------------|
D|-3-3-3-x-7-7-7-x-|-8-8-8-x-10-10-10-x-| x 4
A|-3-3-3-x-5-5-5-x-|-8-8-8-x-10-10-10-x-|
E|-1-1-1-x---------|-6-6-6-x-8--8--8--x-|

Guitar 1 - Part 1 - (0:36 - 0:50)

e|--------------------|-----------------|
B|--------------------|-----------------|
G|--------------------|-7-7-7-x---------|
D|-3-3-3-x-10-10-10-x-|-7-7-7-x---------| x 4
A|-3-3-3-x-10-10-10-x-|-5-5-5-x-8-8-8-x-|
E|-1-1-1-x-8--8--8--x-|---------6-6-6-x-|

Guitar 2 - Part 1 - (0:36 - 0:50)

e|-------------------|------------------|
B|---13-------13-----|------------------|
G|------12-10---12---|------------------|
D|10--------------12~|------------------| x 4
A|-------------------|------------------|
E|-------------------|------------------|

Guitar 1 - Part 2 - (0:50 - 0:57)

e|-----------------|--------------------|
B|-----------------|--------------------|
G|---------7-7-7-x-|--------------------|
D|-3-3-3-x-7-7-7-x-|-8-8-8-x-10-10-10-x-| x 2
A|-3-3-3-x-5-5-5-x-|-8-8-8-x-10-10-10-x-|
E|-1-1-1-x---------|-6-6-6-x-8--8--8--x-|

Guitar 2 - Part 2 - (0:57 - 1:12)

e|----------------|---------------------|----------------|---------------------|
B|------13--------|---------------------|------13-----15~|---------------------|
G|------------12~-|---------------------|----------------|---------------------|
D|10--------------|---------------------|10--------------|---------------------| x 2
A|----------------|---------------------|----------------|---------------------|
E|----------------|---------------------|----------------|---------------------|
................ ................









Guitar 1 - Part 1 - (1:12 - 1:41)

e|--------------------|-----------------|
B|--------------------|-----------------|
G|--------------------|-7-7-7-x---------|
D|-3-3-3-x-10-10-10-x-|-7-7-7-x---------| x 8
A|-3-3-3-x-10-10-10-x-|-5-5-5-x-8-8-8-x-|
E|-1-1-1-x-8--8--8--x-|---------6-6-6-x-|

Guitar 1 - Part 2 - (1:41 - 1:56)

e|-----------------|--------------------|
B|-----------------|--------------------|
G|---------7-7-7-x-|--------------------|
D|-3-3-3-x-7-7-7-x-|-8-8-8-x-10-10-10-x-| x 4
A|-3-3-3-x-5-5-5-x-|-8-8-8-x-10-10-10-x-|
E|-1-1-1-x---------|-6-6-6-x-8--8--8--x-|

Guitar 2 - Part 1 - (1:12 - 1:56)

e|-------------------|------------------|
B|---13-------13-----|------------------|
G|------12-10---12---|------------------|
D|10--------------12~|------------------| x 12
A|-------------------|------------------|
E|-------------------|------------------|
Guitar Tab Creator is intended to store guitar tab created through the tool. It currently does not support in-line text editing. Any text you place in here will be lost. If you need to comment on your tab, please use the "Tab Notes" section located below.