Oliver Welch - Unit 2 Composition (Bass Tab)

Oliver Welch - Unit 2 Composition (Bass Tab) - Tuning: Standard (EADG) - Tempo: 132bpm

Part 1

G|-----------------------------------|
D|-----------------------------------|
A|-----------------|-5-5-5-5---------|
E|-1-1-1-1-8-8-8-8-|---------6-6-6-6-|

Part 2

G|-----------------|-----------------|
D|-----------------|-----------------|
A|---------5-5-5-5-|-----------------|
E|-1-1-1-1---------|-6-6-6-6-8-8-8-8-|

Order:

Part 1 - 0:07 - 0:21
Part 2 - 0:21 - 0:35
Part 1 - 0:36 - 0:50
Part 2 - 0:50 - 0:57
Part 1 - 0:57 - 1:41
Part 2 - 1:41 - 2:11
Guitar Tab Creator is intended to store guitar tab created through the tool. It currently does not support in-line text editing. Any text you place in here will be lost. If you need to comment on your tab, please use the "Tab Notes" section located below.