Cafeteria Bananas - Hella

Tuning: F#ACGBe


|------------|
|------------|
|-9-9-9--9-9-|
|-7-7-7--x-x-|
|-8-8-8--7-7-|
|--------6-6-|

|--------------------------------------|
|--------------------------------------|
|------7------9------7------9------9---| osv.
|-00-8---00-7---00-8---00-7---00-7-----|
|--------------------------------------|
|--------------------------------------|

|-----------------------------|
|-----------------------------|
|---7---7---7----------7---7--|
|-9---9---9--------9-9---9----| with small variations
|-8---8---8---1010-9-8---8----|
|--------------0-0------------|

end
|------------------------------|
|------------------------------|
|------------------------------|
|----9-9-9-9--------9-9-9-9----|
|-x-101010-9-----x-101010-9----|
|-------------0-------------0--|



|----------------------|
|----------------------|
|--------(7)-7-------7-|
|--9--9-9-9-----9-99---|
|--9-10-9-8-----8-98---|
|--0--0-0-0------------|

|---------------------------------------------------|
|---------------------------------------------------|
|---------------------------------------------------|
|-----------------------9-----------------------9---| 9 notes played with pick.
|-----------9-----------------------9---------------|
|-0h7p0h7p0h7p0h7p0h7p0h7p0h7p0h7p0h7p0h7p0h7p0h7p0-| 7 notes tapped and pulled off.

interupting riff
|---------------------|
|---------------------|
|-0h9p0h9p0h9p0h9p0h9-|
|-0000000000000000000-|
|---------------------|
|---------------------|
Guitar Tab Creator is intended to store guitar tab created through the tool. It currently does not support in-line text editing. Any text you place in here will be lost. If you need to comment on your tab, please use the "Tab Notes" section located below.