Gammes Majeures

(/) Slide Up  (\) Slide Down  (h) Hammer On  (p) Pull Off  (b) Bend (r) Release (v) Vibrato

C Maj

E|--------------------------
B|--------------------0--1--
G|--------------0--2--------
D|-----0--2--3--------------
A|--3-----------------------
E|--------------------------


G Maj

E|-----------------------------------------2--3--
B|-----------------------------------3--5--------
G|--------------------------2--4--5--------------
D|-----------------2--4--5-----------------------
A|--------2--3--5--------------------------------
E|--3--5-----------------------------------------


Bb Maj
E|-----------------------------------1--3--5--6--
B|--------------------------1--3--4--------------
G|-----------------0--2--3-----------------------
D|--------0--1--3--------------------------------
A|--1--3-----------------------------------------
E|-----------------------------------------------



E|--
B|--
G|--
D|--
A|--
E|--
http://www.guitartabcreator.com
Guitar Tab Creator is intended to store guitar tab created through the tool. It currently does not support in-line text editing. Any text you place in here will be lost. If you need to comment on your tab, please use the "Tab Notes" section located below.