Evil ways solo in A major

(/) Slide Up  (\) Slide Down  (h) Hammer On  (p) Pull Off  (b) Bend (r) Release (v) Vibrato


E|-------------------------------------------------------------------------------------------------
B|--11h13--13--13--13--13----13--13p12p10------------------------12--13--15--15--15h13h15--15--13--
G|-----------------------------------------12/14--11h12------14------------------------------------
D|-------------------------------------------------------14----------------------------------------
A|-------------------------------------------------------------------------------------------------
E|-------------------------------------------------------------------------------------------------



E|---------------------------------------------------------------------------------------------------
B|--15--15--15--15--13p10h13v--13/17v--17--17p13--17--17p13--10--13/17--20v--20--20--19--19--17--17--
G|---------------------------------------------------------------------------------------------------
D|---------------------------------------------------------------------------------------------------
A|---------------------------------------------------------------------------------------------------
E|---------------------------------------------------------------------------------------------------



E|------------------------------------------------------------5--------------------------5--8-----
B|--15--15--13--13------10--12--13--10h12--8h10--7h8--5----5-----8--5-----------------------------
G|------------------14-----------------------------------7b------------7b7--5h7p5-----------------
D|---------------------------------------------------------------------------------7v-------------
A|------------------------------------------------------------------------------------------------
E|------------------------------------------------------------------------------------------------



E|--7-----5--8--7-----5--7--8p7p5----8/10--10--8--10v--10p8h10p8h10v---------17------17v--
B|-----8-----------8--------------------------------------------------15/17------19-------
G|----------------------------------------------------------------------------------------
D|----------------------------------------------------------------------------------------
A|----------------------------------------------------------------------------------------
E|----------------------------------------------------------------------------------------
http://www.guitartabcreator.com
Guitar Tab Creator is intended to store guitar tab created through the tool. It currently does not support in-line text editing. Any text you place in here will be lost. If you need to comment on your tab, please use the "Tab Notes" section located below.