Fire

(/) Slide Up  (\) Slide Down  (h) Hammer On  (p) Pull Off  (b) Bend (r) Release (v) Vibrato

E|----------------------------------------------------
B|--------------8--7--------------------12--10--8--7--
G|-----------7--------9--7-----------9----------------
D|--7--9--9-----------------9--9--9-------------------
A|--5--7--7-----------------7--7--7-------------------
E|----------------------------------------------------



E|-----------------------------------------------------------------------
B|-----------------------------------------------------------------------
G|-----------------------------------------------------------------------
D|-----------------------------------------------------------------------
A|--2--4--5--5--5--5--4--2--2--2--2--2--2--2--2--6--6--6--6--6--6--6-----
E|--0--2--3--3--3--3--2--0--0--0--0--0--0--0--0--4--4--4--4--4--4--4-----



E|-----------------
B|-----9-----7--9--
G|-----9-----7--9--
D|-----9--7--7--9--
A|--7--7--7--5--7--
E|--5-----5--------



E|--------------------------------------------------
B|--6--5--5--5--6--5--5--5--8--6--6--6--8--6--6--6--
G|--7--5--5--5--7--5--5--5--7--7--7--7--7--7--7--7--
D|--------------------------------------------------
A|--------------------------------------------------
E|--------------------------------------------------



E|------------------------------------------------------
B|------------------------------------------------------
G|------------------------------------------------------
D|--9--7---------9--7---------9--7---------9--7---------
A|--------10--9--------10--9--------10--9--------10--9--
E|------------------------------------------------------



E|-----
B|-----
G|-----
D|--9--
A|--9--
E|--7--



E|--
B|--
G|--
D|--
A|--
E|--
http://www.guitartabcreator.com
Guitar Tab Creator is intended to store guitar tab created through the tool. It currently does not support in-line text editing. Any text you place in here will be lost. If you need to comment on your tab, please use the "Tab Notes" section located below.