Running In Place Is Not Hardcore

(/) Slide Up  (\) Slide Down  (h) Hammer On  (p) Pull Off  (b) Bend (r) Release (v) Vibrato


E|-----------------------------------------------------------------------
B|-----------------------------------------------------------------------
G|-----------------------------------------------------------------------
D|-------------------------10-8-7----------------------------------------
A|--8-----8-7--------8-7-8--------8-7-8----8-7--------------8-7-----7-5--
E|----0-0----0-0-0-0--------------------0-0----0-0-0-0--7-7-----5-5------ (Repeat one more time)



E|---------------------------------------------------------
B|---------------------------------------------------------
G|---------------------------------------------------------
D|--0--0-0-0------0-0-0-0------0-0-0-0-----------10-8-7----
A|--0--0-0-0-8-7--0-0-0-0-8-7--0-0-0-0-8-7-8-7-8--------8-7
E|--0--0-0-0--0---0-0-0-0--0---0-0-0-0--0------------------ (Repeat one more time)



E|-------------------------------------------------
B|-------------------------------------------------
G|-------------------------------------------------
D|--0-0-000----00-00-0---0-0-000-------------------
A|--0-0-000----00-00-0---0-0-000-------8-7-----7-5-
E|--0-0-000----00-00-0---0-0-000---7-7-----5-5-----


E|---------------------------------------------------------
B|---------------------------------------------------------
G|---------------------------------------------------------
D|--0--0-0-0------0-0-0-0------0-0-0-0-----------10-8-7----
A|--0--0-0-0-8-7--0-0-0-0-8-7--0-0-0-0-8-7-8-7-8--------8-7
E|--0--0-0-0--0---0-0-0-0--0---0-0-0-0--0------------------ (Repeat three more times)



E|--------------------------------------------------------------------------
B|--------------------------------------------------------------------------
G|--------------------------------------------------------------------------
D|--8888888888888888-0--00--0-0000-000-0--8888888855555555-0--00--0-0000-000-0
A|--8888888888888888-0--00--0-0000-000-0--8888888855555555-0--00--0-0000-000-0
E|--8888888888888888-0--00--0-0000-000-0--8888888855555555-0--00--0-0000-000-0



E|------------------------------------------------------
B|------------------------------------------------------
G|------------------------------------------------------
D|--88888888TenTenTenTenTenTenTenTen-0--00--0-0000-000-0
A|--88888888TenTenTenTenTenTenTenTen-0--00--0-0000-000-0
E|--88888888TenTenTenTenTenTenTenTen-0--00--0-0000-000-0



E|----------------------------------------------------------
B|----------------------------------------------------------
G|----------------------------------------------------------
D|--8888888855555555-0--00--0-0000-000-0-0--00--0-0000-000-0
A|--8888888855555555-0--00--0-0000-000-0-0--00--0-0000-000-0
E|--8888888855555555-0--00--0-0000-000-0-0--00--0-0000-000-0


E|---------------------------------------------------------
B|---------------------------------------------------------
G|---------------------------------------------------------
D|--0--0-0-0------0-0-0-0------0-0-0-0-----------10-8-7----
A|--0--0-0-0-8-7--0-0-0-0-8-7--0-0-0-0-8-7-8-7-8--------8-7
E|--0--0-0-0--0---0-0-0-0--0---0-0-0-0--0------------------ (Repeat three more times)


E|--------------------------------------------------------------------------
B|--------------------------------------------------------------------------
G|--------------------------------------------------------------------------
D|--8888888888888888-0--00--0-0000-000-0--8888888855555555-0--00--0-0000-000-0
A|--8888888888888888-0--00--0-0000-000-0--8888888855555555-0--00--0-0000-000-0
E|--8888888888888888-0--00--0-0000-000-0--8888888855555555-0--00--0-0000-000-0



E|------------------------------------------------------
B|------------------------------------------------------
G|------------------------------------------------------
D|--88888888TenTenTenTenTenTenTenTen-0--00--0-0000-000-0
A|--88888888TenTenTenTenTenTenTenTen-0--00--0-0000-000-0
E|--88888888TenTenTenTenTenTenTenTen-0--00--0-0000-000-0



E|----------------------------------------------------------
B|----------------------------------------------------------
G|----------------------------------------------------------
D|--8888888855555555-0--00--0-0000-000-0-0--00--0-0000-000-0
A|--8888888855555555-0--00--0-0000-000-0-0--00--0-0000-000-0
E|--8888888855555555-0--00--0-0000-000-0-0--00--0-0000-000-0


E|---------------------------------------------------------
B|---------------------------------------------------------
G|---------------------------------------------------------
D|--0--0-0-0------0-0-0-0------0-0-0-0-----------10-8-7----
A|--0--0-0-0-8-7--0-0-0-0-8-7--0-0-0-0-8-7-8-7-8--------8-7
E|--0--0-0-0--0---0-0-0-0--0---0-0-0-0--0------------------ (Repeat one more time)



E|----------------------------------------------------------------------
B|----------------------------------------------------------------------
G|----------------------------------------------------------------------
D|--8888888888888888-0--000--000--000--8888888855555555-0--000--000--000
A|--8888888888888888-0--000--000--000--8888888855555555-0--000--000--000
E|--8888888888888888-0--000--000--000--8888888855555555-0--000--000--000



E|----------------------------------------------------
B|----------------------------------------------------
G|----------------------------------------------------
D|--88888888TenTenTenTenTenTenTenTen-0--000--000--000-
A|--88888888TenTenTenTenTenTenTenTen-0--000--000--000-
E|--88888888TenTenTenTenTenTenTenTen-0--000--000--000-



E|---------------------------------
B|---------------------------------
G|---------------------------------
D|--8888888888888888777777775------
A|--8888888888888888777777775------
E|--8888888888888888777777775------


E|---------------------
B|---------------------
G|---------------------
D|--0-0--000----0000000
A|--0-0--000----0000000
E|--0-0--000----0000000 (Repeat eleven more times)
Guitar Tab Creator is intended to store guitar tab created through the tool. It currently does not support in-line text editing. Any text you place in here will be lost. If you need to comment on your tab, please use the "Tab Notes" section located below.