Orpheus Looks Back

(/) Slide Up  (\) Slide Down  (h) Hammer On  (p) Pull Off  (b) Bend (r) Release (v) Vibrato


E|------------------------------------------------------------------
B|------------------------------------------------------------------
G|------------------------------------------------------------------
D|--0000000000000000888888888888888833333333333333335555555555555555
A|--0000000000000000888888888888888833333333333333335555555555555555
E|--0000000000000000888888888888888833333333333333335555555555555555 (Repeat one more time)

End on open top three strings going into the verse



E|--------------------------------
B|--------------------------------
G|--------------------------------
D|--0-00000-0-0-------88-888877-7777
A|--0-00000-0-0-------88-888877-7777
E|--0-00000-0-0-------88-888877-7777 (Repeat three more times)



E|------------------------------------------------------------------
B|------------------------------------------------------------------
G|------------------------------------------------------------------
D|--0000000000000000888888888888888833333333333333335555555555555555
A|--0000000000000000888888888888888833333333333333335555555555555555
E|--0000000000000000888888888888888833333333333333335555555555555555 (Repeat one more time)

End on an open note again going into the second verse


E|---------------------------------------------
B|---------------------------------------------
G|---------------------------------------------
D|--0-00000-0-0-------8888-8-88-10-10-10-7-7-77
A|--0-00000-0-0-------8888-8-88-10-10-10-7-7-77
E|--0-00000-0-0-------8888-8-88-10-10-10-7-7-77 (Repeat three more times)



E|------------------------------------------------------------------
B|------------------------------------------------------------------
G|------------------------------------------------------------------
D|--0000000000000000888888888888888833333333333333335555555555555555
A|--0000000000000000888888888888888833333333333333335555555555555555
E|--0000000000000000888888888888888833333333333333335555555555555555 (Repeat one more time)



E|---------------------------------------------------
B|---------------------------------------------------
G|---------------------------------------------------
D|--0-0-0--0-8--0-0-0--0-8--0-0-0--0-8--8-7-5-7-5-3-5
A|--0-0-0--0-8--0-0-0--0-8--0-0-0--0-8--8-7-5-7-5-3-5
E|--0-0-0--0-8--0-0-0--0-8--0-0-0--0-8--8-7-5-7-5-3-5 (Repeat three more times)



E|------------------------------------------------------------------
B|------------------------------------------------------------------
G|------------------------------------------------------------------
D|--0000000000000000888888888888888833333333333333335555555555555555
A|--0000000000000000888888888888888833333333333333335555555555555555
E|--0000000000000000888888888888888833333333333333335555555555555555 (Repeat one more time)
Guitar Tab Creator is intended to store guitar tab created through the tool. It currently does not support in-line text editing. Any text you place in here will be lost. If you need to comment on your tab, please use the "Tab Notes" section located below.