Initiate Pleasure Sequence Alpha Five Omega

(/) Slide Up  (\) Slide Down  (h) Hammer On  (p) Pull Off  (b) Bend (r) Release (v) Vibrato


D|--------------------------------
A|--------------------------------
F|--------------------------------
C|--000--0--0--000--0--0--000--000
G|--000--0--0--000--0--0--000--000
C|--000--0--0--000--0--0--111--111 (repeat seven more times)



D|--------------------------------
A|--------------------------------
F|--------------------------------
C|--000--0--0--000--0--0--000--000
G|--111--1--1--111--1--1--111--111
C|--000--0--0--000--0--0--000--000 (repeat three more times)



E|----------------------------------------------------------------
B|----------------------------------------------------------------
G|----------------------------------------------------------------
D|--000--0--0--000--0--0--000--000--------------------------------
A|--000--0--0--000--0--0--000--000-----------------------------0--
E|--000--0--0--000--0--0--111--111--(repeat three more times)--0--
Guitar Tab Creator is intended to store guitar tab created through the tool. It currently does not support in-line text editing. Any text you place in here will be lost. If you need to comment on your tab, please use the "Tab Notes" section located below.