I'm A Dinosaur

(/) Slide Up  (\) Slide Down  (h) Hammer On  (p) Pull Off  (b) Bend (r) Release (v) Vibrato


E|------------------------------------------------------------------
B|------------------------------------------------------------------
G|------------------------------------------------------------------
D|--0000-000000-000--000000-3-5-3-2---0000-000000-000--000000-3--5--
A|--0000-000000-000--000000-3-5-3-2---0000-000000-000--000000-3--5--
E|--0000-000000-000--000000-3-5-3-2---0000-000000-000--000000-3--5-- (repeat three more times)



E|--------------
B|--------------
G|--------------
D|--3--5--3--2--
A|--3--5--3--2--
E|--3--5--3--2-- (repeat FIFTEEN HORRIBLE TIMES)



E|---------------------------------------------------
B|---------------------------------------------------
G|---------------------------------------------------
D|--00-00--0-0--0000000---00-00--0-0--000000-3-5-3-2-
A|--00-00--0-0--0000000---00-00--0-0--000000-3-5-3-2-
E|--00-00--0-0--0000000---00-00--0-0--000000-3-5-3-2- (repeat one more time)



E|-----------------------------------[-----------------------]
B|-----------------------------------[-----------------------]
G|-----------------------------------[-----------------------]
D|-----------------------------------[3-2-0---3-2-0---0--00--]
A|--3-33-33-33-33-3-5-55-5-2-22-22-2-[3-2-0---3-2-0---0--00--]
E|--3-33-33-33-33-3-5-55-5-2-22-22-2-[3-2-0---3-2-0---0--00--] (repeat what's in brackets three
more times)



E|------------------------------------------------
B|------------------------------------------------
G|------------------------------------------------
D|--00-00--0-0--0000000---00-00--0-0--000000-0-0-0
A|--00-00--0-0--0000000---00-00--0-0--000000-1-1-1
E|--00-00--0-0--0000000---00-00--0-0--111111-0-0-0 (repeat one more time)



E|-------------------------
B|-------------------------
G|-------------------------
D|--3-2-0---3-2-0---0--00--
A|--3-2-0---3-2-0---0--00--
E|--3-2-0---3-2-0---0--00--



E|----------
B|----------
G|----------
D|--3-5-3-2-
A|--3-5-3-2-
E|--3-5-3-2- (repeat fifteen more times. seriously.)



E|-------------------------------------------------------
B|-------------------------------------------------------
G|-------------------------------------------------------
D|--0-00000-00000-0000-3-5-3-2--0-00000-00000-0000-3--5--
A|--0-00000-00000-0000-3-5-3-2--0-00000-00000-0000-3--5--
E|--0-00000-00000-0000-3-5-3-2--0-00000-00000-0000-3--5-- (repeat one more time)



E|----------------------------------
B|----------------------------------
G|----------------------------------
D|--0-0-0-0-0-0-0-0-0-0-0-0-0-0-0-0-
A|--0-0-0-0-0-0-0-0-0-0-0-0-0-0-0-0-
E|--0-0-0-0-0-0-0-0-0-0-0-0-0-0-0-0- (repeat one more time)



E|----------------------
B|----------------------
G|----------------------
D|--0-------0-----0-0--0-
A|--0-------0-----0-0--1-
E|--0-------0-----0-1--0- (repeat until the song ends)
Guitar Tab Creator is intended to store guitar tab created through the tool. It currently does not support in-line text editing. Any text you place in here will be lost. If you need to comment on your tab, please use the "Tab Notes" section located below.